X===============================PLEASE NOTE=====================================
X This tab belongs to its author and represents his interpretation of the song.
X You may only use this tab for private study, scholarship, or research.
X Do not change, deface, mutilate, or in any other way alter this tab.
X You must email the author first if you want to use this tab on your site.
X===============================================================================

Kyuss: Tangy Zizzle
From the album: '...And The Circus Leaves Town' (Elektra)
1995 Elektra Records
Lyrics by J. Homme
Music by Kyuss
Transcribed by Sean Hayter 2001

Tuning: Down 2 Whole Steps to C (C-F-Bb-Eb-G-C)
Notes: 'Tangy Zizzle' is track #8 on '...And The Circus Leaves Town'

Intro Riff:
C|---------------------------------------------------||
G|---------------------------------------------------||
Eb|---------------------------------------------------||
Bb|-9-9-9-9-9-9-9-9-9-9-11-11-11-11-11-12-12-12-12-12-||
F|-7-7-7-7-7-7-7-7-7-7--9--9--9--9--9-10-10-10-10-10-||
C|-7-7-7-7-7-7-7-7-7-7--9--9--9--9--9-10-10-10-10-10-||

Verse Riff:
C|-----------------------------------------||
G|-----------------------------------------||
Eb|-----------------------------------------||
Bb|-----------------------------------------||
F|-3-3-3-3-3-3-3-3-3-3-5-5-5-5-5-6-6-6-6-6-||
C|-1-1-1-1-1-1-1-1-1-1-3-3-3-3-3-4-4-4-4-4-||

Chorus:
C|-----------------------------------------||
G|-----------------------------------------||
Eb|-----------------------------------------||
Bb|-----------11-11-8-8-8-8-8-8-7-7-7-7-7-7-||
F|-3-3-3-3-3--9--9-6-6-6-6-6-6-5-5-5-5-5-5-||
C|-1-1-1-1-1-------------------------------||

Lyrics:
"Yeah, put it in gear baby, hell yeah, that's what I like
about you baby, you're always on time"

Wherever you go
Is where I go
Whatever you say
Keep it runnin'
When the wind blows
When the sky breaks
Hold your eyes in
And believin'
Ah ah ah
Whoa whoa ah
Whoa whoa whoa
Whoah whoa ah

Way you want me to be
Way you want me to be
Way you want me to be
Way you want me to be
Ah ah ah
Whoa whoa ah
Ah ah oh

In the mornin'
When its rainin'
I can't believe it
Put the blame in
Fuck the others
Fuck the teacher
They'll never notice
Is it crazy?
Ah ah ah
Whoa whoa oh
Ah ah ah
Whoa whoa ah

Way you want me to be
Way you want me to be
Way you want me to be
Way you want me to be