X===============================PLEASE NOTE=====================================
X This tab belongs to its author and represents his interpretation of the song.
X You may only use this tab for private study, scholarship, or research.
X Do not change, deface, mutilate, or in any other way alter this tab.
X You must email the author first if you want to use this tab on your site.
X===============================================================================

You Would Know
tabbed by thefade.org

Tuning - C F Bb Eb G C

riff 1:
----------------|
----------------|
------------7---|
-----7----5-----|
---5----6-------|
----------------|

riff 2:
--------------------|
--------------------|
------17----17------|
---19----17----19---|
--------------------|
--------------------|

chorus:
--------------------------|
--------------------------|
---8-8-8-10-10-10-5-5-5---|
---8-8-8-10-10-10-5-5-5---|
---6-6-6--8--8--8-3-3-3---|
--------------------------|

riff 1

0:17
---------|
---------|
---19b---|
---------|
---------|
---------|

0:21
------------------------|
------------------------|
---17-------------19b---|
------17-15-17-15-------|
------------------------|
------------------------|

riff 1:
Me just happy robot

---------|
---------|
---17b---|
---------|
---------|
---------|

Live on hill of beans
You and I cut from same cloth

---------------------|
---------------------|
---------------19b---|
---17-19----17-------|
---------17----------|
---------------------|
Rippin at the seams
Cut, snip, cut

riff 1 and riff 2:
Donít forget to remember
The devilís got pills in his eyes
Look, laugh, but donít touch
Cut you down to size

--------------------|
--------------------|
---19b-17b-19b------|
--------------------|
--------------------|
--------------------|
Cut, up, cut (shut up)
Cut, up, cut

chorus:
You would know

---------------------|
---------------------|
---17b---17b---17b---|
---------------------|
---------------------|
---------------------|
riff 1 and riff 2:
My girlís all out of focus
I ainít no big surprise

riff 1:
Daddy got his gun loaded
Got crosshairs in his eyes

---------|
---------|
---17b---|
---------|
---------|
---------|
Shut up, oh
Shut up, oh

chorus:
You would know
riff 1

solo:
------------------------------------------------------------------------------|
------------------------------------------------------------------------------|
------------15-17-19---15-17-15--15-15----------------------------------------|
---15-17-15----------------------------16-16---14-16-14-12-12---12-12-12-12---|
------------------------------------------------------------------------------|
------------------------------------------------------------------------------|

----------------------------------------------------------------------------|
----------------------------------------------------------------------------|
-------------------------------------------------19b---17-15-------15-18b---|
----------12-------------17-18b---19-19-19-17-17-------------17-15----------|
---12-12-------17-17-17-----------------------------------------------------|
----------------------------------------------------------------------------|

chorus riff:
You would know

riff 3 intro (3:18):
---------------------------------------|
---------------------------------------|
---------------------------------------|
---------------------------------------|
---6-6-6-6-6-6-6-6-6-6-6-6-6-6-6-6-5---|
---------------------------------------|

riff 3:
-----------------------------|
-----------------------------|
-----------------------------|
-----------------------------|
---3-3-1-3-5-3-1-3-1-3-5-3---|
-----------------------------|

riff 4:
-----------------------------------------|
-----------------------------------------|
---5-5-5-5-10-10-10-10-8-8-8-8-7-7-7-7---|
---5-5-5-5-10-10-10-10-8-8-8-8-7-7-7-7---|
---3-3-3-3--8--8--8--8-6-6-6-6-5-5-5-5---|
-----------------------------------------|

end:
--------------------|
--------------------|
------17----17------|
---19----16----19---|
--------------------|
--------------------|