X===============================PLEASE NOTE=====================================
X This tab belongs to its author and represents his interpretation of the song.
X You may only use this tab for private study, scholarship, or research.
X Do not change, deface, mutilate, or in any other way alter this tab.
X You must email the author first if you want to use this tab on your site.
X===============================================================================

Kyuss: Writhe
From the album: 'Blues For The Red Sun' (Dali)
1992 Dali Records
Lyrics by J. Homme
Music by Kyuss
Transcribed by Sean Hayter 2001

Tuning: Down 2 Whole Steps to C (C-F-Bb-Eb-G-C)
Notes: 'Writhe' is track #10 on 'Blues For The Red Sun'

Intro Riff:
C|-------||
G|-------||
Eb|-------||
Bb|-------||
F|-2-2-4-||
C|-0-0-2-||

Verse Riff:
C|----------------------------||
G|----------------------------||
Eb|----------------------------||
Bb|----------------------------||
F|-2-4-4-2-4--2-4--2-4--2-7-7-||
C|-0-2-2-0-2--0-2--0-2--0-5-5-||

Chorus Riff:
x10 x10 x25
C|---|---|----||
G|---|---|----||
Eb|---|---|----||
Bb|-7-|-9-|-11-||
F|-5-|-7-|--9-||
C|---|---|----||
(repeat once)

Solo:
C|---------------------------------------------------------------------|
G|---------------------------------------------------------------------|
Eb|----------9--6-7-6-------------------6-7-6--6-7-6--------------------|
Bb|----6-7-6-----------7--------6-7-6-7--------------7------------------|
F|--9-------------------9--9-9------------------------9-9--------------|
C|---------------------------------------------------------------------|
x2
C|------------------------|--------------------------------------------|
G|----------10-10---------|----------10--------------------------------|
Eb|-11-11-11-------11-9-11-|-11-11-11----11--9-11-9----9-11-9----9-11---|
Bb|------------------------|------------------------11--------11--------|
F|------------------------|--------------------------------------------|
C|------------------------|--------------------------------------------|
x4
C|-------------|-------------------------------------------------------||
G|-------------|-------------------------------------------------------||
Eb|----------14-|----------------------9-9-11-11------------------------||
Bb|-11-12-11----|-11-12-11--11-12-11-------------9-9--------------------||
F|-------------|------------------------------------9-9-9/10/9---------||
C|-------------|-------------------------------------------------------||

Solo/Last Verse Bridge:
Play Intro Riff after the black lines. The second bit is just noise or
muted D5 at the 9th fret on the F string.
C|---------------------|--------------------|--------------------------||
G|---------------------|--------------------|--------------------------||
Eb|---------------------|--------------------|--------------------------||
Bb|---------------------|-7-9>-7-------7-9-7-|--------------------------||
F|-----------2-4-4-4/5-|--------9-7-9-------|--------------------------||
C|-2-4-4-2-0-----------|--------------------|-0-2>-0-2-0-2-------------||

Lyrics:
Everyone seems to be singin' for Satan
Guess I will to
What a joke, is life
'Till I turn blue

Every tale is hard to bear
What a manly little crew
I don't think I'll tease my hair
I'd rather sit here teasin' you

Won't you writhe like snakes down on the floor?
Out you go and into one hundred more

I seem to lost my cowboy boots
With the fringe runnin' down the side
A sewing machine has made me green
'Cause my jeans didn't turn out tight

All these ruins I took for you
They'll keep my love alive
Your smile overweighs their minds
And your kiss makes it worth the ride

Won't you writhe like snakes down on the floor?
Out you go and into one hundred more