X===============================PLEASE NOTE=====================================
X This tab belongs to its author and represents his interpretation of the song.
X You may only use this tab for private study, scholarship, or research.
X Do not change, deface, mutilate, or in any other way alter this tab.
X You must email the author first if you want to use this tab on your site.
X===============================================================================

Kyuss: Whitewater
From the album: 'Welcome To Sky Valley' (Elektra)
1995 Elektra Records
Lyrics by J. Homme
Music by Kyuss
Transcribed by Sean Hayter 2001

Tuning: Down 2 Whole Steps to C (C-F-Bb-Eb-G-C)
Notes: 'Whitewater' is track #3 Pt. 4 on 'Welcome To Sky Valley'

Intro Riff: (x2)
C|------------------------|
G|------------------------|
Eb|------------------------|
Bb|-------5-5-5-7--7-3-3/5-|
F|-3/5-5------------------|
C|------------------------|

C|-----------------------|
G|-----------------------|
Eb|---------------9-5-5/7-|
Bb|-------5-5-5-7---------|
F|-3-5-5-----------------|
C|-----------------------|

C|------------------------||
G|------------------------||
Eb|------------------------||
Bb|-------5-5-5-7--7-3-3/5-||
F|-3/5-5------------------||
C|------------------------||

Verse Riff:
C|-----|----------------------------------------------------------------|
G|-----|----------------------------------------------------------------|
Eb|-----|-------------------------------------------------------------5--|
Bb|-5-5-|-----5-7---------5-7-----5-7---------5-7---------5-7-----5-7--7-|
F|-3-3-|-0-0-----0-0-0-0-----0-0-----3-5-0-0-----0-0-0-0-----0-0--------|
C|-----|----------------------------------------------------------------|

C|-----------------------------||
G|-----------------------------||
Eb|-----------------------------||
Bb|-----5-7---------5-7-----5---||
F|-0-0-----0-0-0-0-----0-0-3-5-||
C|---------------------------3-||

Lyrics:
Oh, sunshine
The loving beauty
Pass me by
Should I waste my time
In your valley
Beneath your sky?

I, I, I, I...
I am home

You move your own mountain
The trees have grown
The trees have grown
Now it's over
Now it's over and I'm going home

I, I, I, I...
I am home