X===============================PLEASE NOTE=====================================
X This tab belongs to its author and represents his interpretation of the song.
X You may only use this tab for private study, scholarship, or research.
X Do not change, deface, mutilate, or in any other way alter this tab.
X You must email the author first if you want to use this tab on your site.
X===============================================================================

So here is the missing tab for a great song: You're So Vague. I know it's not all but this what i found out and is enough to play the song
comments corrections of other stuff : f.grenz@web.de
have fun with

You're So Vauge

Tuning - E A D G B E

Intro: (sorry for not bringing the bass line)
----15--16--13-------------
-----------------16--------
---------------------------
---------------------------
---------------------------
---------------------------

Main riff:
C5 D5 D#5 F#5 G5
------------------------------------------------------------------------
------------------------------------------------------------------------
--5------7------8-----11-----12-----------------------------------------
--5------7------8-----11-----12-----------------------------------------
--3------5------6-----9------10-----------------------------------------
------------------------------------------------------------------------

Chorus:
C5 B5
----------------------------------
----------------------------------
---5-------3----------------------
---5-------3----------------------
---3-------1----------------------
----------------------------------
-i know that it's not the C5 josh is playing in the chorus but it sound nearly like that chord josh is playing.i can't figure out that chord.all i know is that there must be an A# within the C5 chord ...

Little solo after the Chorus:
-it's hard to figure out that but a good suggestion is to play the pentatonik on C and to improvise.
-8---------------11-------------------------------------
-8---------------11-------------------------------------
-8-----------10-----------------------------------------
-8-----------10-----------------------------------------
-8-----------10-----------------------------------------
-8---------------11-------------------------------------
-fer every little solo in the song you can use that pentatonik

-when josh stards singing : "Setting you up It donít get you down When you flash your fangs You own this town" in the 2.verse he playes the Main riff chords(C5 D5 D#5 F#5 G5) one octave higher.

Clear-eyed girl
In a crooked way
All the crooked walkin
To avoid and evade
Hair like maple, skin like cream
Bet they say I love you
When you strip them thin

Chorus:
Baby, youíre so vague
That you probably think this song ainít about you

Green eyed boys
Lick the razor blade
Girl I think I love you
And the mess you made
Setting you up
It donít get you down
When you flash your fangs
You own this town

Chorus:
Baby, youíre so vague
That you probably think this song ainít about you