X===============================PLEASE NOTE=====================================
X This tab belongs to its author and represents his interpretation of the song.
X You may only use this tab for private study, scholarship, or research.
X Do not change, deface, mutilate, or in any other way alter this tab.
X You must email the author first if you want to use this tab on your site.
X===============================================================================

Kyuss: Supa Scoopa and Mighty Scoop
From the album: 'Welcome To Sky Valley' (Elektra)
1995 Elektra Records
Lyrics by J. Homme
Music by Kyuss
Transcribed by Sean Hayter 2001

Tuning: Down 2 Whole Steps to C (C-F-Bb-Eb-G-C)
Notes: 'Supa Scoopa and Mighty Scoop' is track #1 Pt. 3 on 'Welcome To Sky Valley'

Intro:
C|-----------------------------------------------------------------||
G|-----------------------------------------------------------------||
Eb|-----------------------------------------------------------------||
Bb|-------------7-77777-777710-1010101010-1010101012-121212129-9999-||
F|-0-00000-0000----------------------------------------------------||
C|-----------------------------------------------------------------||

Verse:
C|--------------------------------------------------||
G|--------------------------------------------------||
Eb|--------------------------------------------------||
Bb|-2-22222-22222-22222-22225-55555-55557-77774-4444-||
F|-0-00000-00000-00000-00003-33333-33335-55552-2222-||
C|--------------------------------------------------||

Pre-Chorus:
C|---------------------------------||
G|---------------------------------||
Eb|---------------------------------||
Bb|-2-22222-222212------------10-12-||
F|-0-00000-00001010-10-10-7--8--10-||
C|---------------8--8--8--5--------||

Chorus:
C|-----------------------------------------||
G|-----------------------------------------||
Eb|-----------------------------------------||
Bb|-2-2/14141414~-1414~-12------------10-12-||
F|-0-0-----------------1010-10-10129-8--10-||
C|-----------------------8--8--8-107-------||

Post Chorus: A. B.
C|-------------------------|-------------------------||
G|-------------------------|-------------------------||
Eb|------------12b-12-------|------------12b-12----12-||
Bb|----------10-------10-10-|----------10-------10----||
F|-0-0-10h12---------------|-0-0-10h12---------------||
C|-------------------------|-------------------------||

Solo Backing: A. B.
C|-----------------------------|---------------------------||
G|----------------10-----------|----------------10---1010~-||
Eb|-------------12--------------|-------------12---12-------||
Bb|----------10-------12b-12-9~-|----------10---------------||
F|-0-0-10h12-------------------|-0-0-10h12-----------------||
C|-----------------------------|---------------------------||

Coda:
C|----------------------------||
G|----------------------------||
Eb|-9-9--------9-9-------------||
Bb|-7-7--------7-7-------------||
F|-0-0--------0-0--------etc.-||
C|----------------------------||

Lyrics:
Don't try to take me away
Like I can't live without you
Today, makin' love tomorrow
So way, swooping you're so fragile
Die today, you disgrace the mortal

Fight me lately
Tried to someone
We've been laughing
Since you've been gone
And I want to know
Did you all enjoy the show?
It's so sad to see you go

And you know
Love mode
Your load
Whoa so slow

Hangin' low today
I replace the highway
Love the only way
Linking hands the wrong way
So I bare to see you go
It's so sad to see you go
I jus' thought I'd let you know

And you know
You moan
Alone
Whoa so soul