X===============================PLEASE NOTE=====================================
X This tab belongs to its author and represents his interpretation of the song.
X You may only use this tab for private study, scholarship, or research.
X Do not change, deface, mutilate, or in any other way alter this tab.
X You must email the author first if you want to use this tab on your site.
X===============================================================================

Kyuss: Son of A Bitch
From the album: 'Wretch' (Dali)
1991 Dali Records
Lyrics by J. Homme, N. Oliveri
Music by Kyuss
Tabbed by Sean Hayter 2001

Tuning: Down 2 Whole Steps to C (C-F-Bb-Eb-G-C)
Notes: 'Son of A Bitch' is track #3 on 'Wretch'

Intro/Verse Riff:
C|--------------------------------------------||
G|--------------------------------------------||
Eb|--------------------------------------------||
Bb|---------7----------5-----------------------||
F|-------------------------------7----------5-||
C|-5-5-5-5----5-5-5-5----5-5-5-5----5-5-5-5---||

Chorus:
C|------------------||
G|------------------||
Eb|------------------||
Bb|------------------||
F|----7-------7-6-3-||
C|-5-5------3-------||

Bridge:
C|------------------------||
G|------------------------||
Eb|------------------------||
Bb|-------5-7--------------||
F|---5-7--------5-7-5-7-3-||
C|-5----------5-----------||

Lyrics:
God-damn son of a bitch

God-damn son of a bitch
God-damn son of a bitch
God-damn son of a bitch
God-damn son of a bitch

God-damn son of a bitch
See the young ones play
And say would you want to
You have a long legs, long hair
Big tits, you got a big ass
Your parts will never last, never last

God-damn son of a bitch
God-damn son of a bitch
God-damn son of a bitch
God-damn son of a bitch

God-damn son of a bitch
See the young ones say, well and play
Would they want to, from you
You say your fucken with them
You say they're fucken with you
Compete with them and you'll never win, never win

God-damn son of a bitch
God-damn son of a bitch
God-damn son of a bitch
God-damn son of a bitch

Well it's cold where we come from
But not to make me freeze
I look around me at what I see
The world different from before
There's been a change in me
Things are lookin' pretty blurry
I keep a-wishin' that she would awake me
And tell me it was just a bad dream
But I guess you gotta be awakened
When you're already wakened to reality, yeah

God-damn son of a bitch
God-damn son of a bitch
God-damn son of a bitch
God-damn son of a bitch