X===============================PLEASE NOTE=====================================
X This tab belongs to its author and represents his interpretation of the song.
X You may only use this tab for private study, scholarship, or research.
X Do not change, deface, mutilate, or in any other way alter this tab.
X You must email the author first if you want to use this tab on your site.
X===============================================================================

Qeens Of The Stone Age
The Lost Art of Keeping a Secret
tabbed bij Jeroen Duller
Tuning - DADGBE (drop lowere E to D)

verse: palm mute
---------------------------------------------------------------------------|
---------------------------------------------------------------------------|
---------------------------------------------------------------------------|
---5-5-5-5-5-5-5-5---------------------------------------------------------|
---5-5-5-5-5-5-5-5--5-5-5-5-5-5-5-5--4-4-4-4-4-4-4-4--3-3-3-3-3-3--3b3-2---|
---3-3-3-3-3-3-3-3--5-5-5-5-5-5-5-5--4-4-4-4-4-4-4-4--3-3-3-3-3-3--------3-|
--------------------5-5-5-5-5-5-5-5--4-4-4-4-4-4-4-4--3-3-3-3-3-3----------|

verse:
Well, Iíve got a secret, I cannot say
A modern movement to give it away
Youíve got somethin that I understand
Hold it in tightly, call on command
Leap of faith, do you doubt?
Cut you in, I just cut you out

chorus riff 1 (guitar 1):
------------------------------------------------------------------------|
------------------------------------------------------------------------|
------------------------------------------------------------------------|
---5-5-5-5-5-5-5-5------------------------------------------------------|
---5-5-5-5-5-5-5-5--5-5-5-5-5-5-5-5--4-4-4-4-4-4-4-4--1-1-1-1-1-1-1-3-5-|
---3-3-3-3-3-3-3-3--5-5-5-5-5-5-5-5--4-4-4-4-4-4-4-4--1-1-1-1-1-1-1-3-5-|
--------------------5-5-5-5-5-5-5-5--4-4-4-4-4-4-4-4--1-1-1-1-1-1-1-3-5-|

chorus riff 1 (guitar 2):
----------------------------------------------------------------------------------------|
----------------------------------------------------------------------------------------|
---5-5-5-5-5-5-5-5--12-12-12-12-12-12-12-12--11-11-11-11-11-11-11-11--7-7-7-7-7-7-10-10-|
---5-5-5-5-5-5-5-5--12-12-12-12-12-12-12-12--11-11-11-11-11-11-11-11--7-7-7-7-7-7-10-10-|
---3-3-3-3-3-3-3-3--10-10-10-10-10-10-10-10---9--9--9--9--9--9--9--9--5-5-5-5-5-5--8--8-|
----------------------------------------------------------------------------------------|

chorus riff 1:
Whatever you do
Donít tell anyone
Whatever you do
Donít tell anyone

verse:
Look for reflections, in your face
Canine devotion, time canít erase
Out on the corner or locked in your room
I never believe them and I never assume
Stuck in believe there is a lie
Promise is promise, an eye for an eye
But weíve got something to reveal
No one can know how we feel

chorus riff 2 (guitar 1):
----------------------------------------------------------------------|
----------------------------------------------------------------------|
----------------------------------------------------------------------|
---5-5-5-5-5-5-5-5--4-4-4-4-4-4-4-4--8-8-8-8-8-8-8-8--7-7-7-7-6-6-6-6-|
---5-5-5-5-5-5-5-5--5-5-5-5-5-5-5-5--8-8-8-8-8-8-8-8--7-7-7-7-6-6-6-6-|
---3-3-3-3-3-3-3-3--5-5-5-5-5-5-5-5--6-6-6-6-6-6-6-6--5-5-5-5-4-4-4-4-|
--------------------3-3-3-3-3-3-3-3-----------------------------------|

chorus riff 2 (guitar 2):
------------------------------------------------------------------------------|
------------------------------------------------------------------------------|
---5-5-5-5-5-5-5-5--11-11-11-11-11-11-11-11--8-8-8-8-8-8-8-8--7-7-7-7-6-6-6-6-|
---5-5-5-5-5-5-5-5--11-11-11-11-11-11-11-11--8-8-8-8-8-8-8-8--7-7-7-7-6-6-6-6-|
---3-3-3-3-3-3-3-3---9--9--9--9--9--9--9--9--6-6-6-6-6-6-6-6--5-5-5-5-4-4-4-4-|
------------------------------------------------------------------------------|

chorus riff 1:
Whatever you do
Don't tell anyone
Whatever you do
Don't tell anyone

chorus riff 2:
Whatever you do
Don't tell anyone

chorus riff 1:
Whatever you do
Don't tell anyone

bridge (guitar 1):
------(2x)-------------(2x)-----------------(2x)--------------|
-----------------------------------12-12-12-12-12-12-12-12----|
--------------------------------------------------------------|
-4-4-4-4-4-4-4-4--6-6-6-6-6-6-6-6--10-10-10-10-10-10-10-10----|
-4-4-4-4-4-4-4-4--6-6-6-6-6-6-6-6-----------------------------|
-4-4-4-4-4-4-4-4--6-6-6-6-6-6-6-6-----------------------------|

--------------------------------------------------------------------|
--------------------------------------------------------------------|
--------------------------------------------------------------------|
-4-4-4-4-4-4-4-4--4-4-4-4-4-4-4-4--6-6-6-6-6-6-6-6--6-6-6-6-6-6-6-6-|
-4-4-4-4-4-4-4-4--4-4-4-4-4-4-4-4--6-6-6-6-6-6-6-6--6-6-6-6-6-6-6-6-|
-4-4-4-4-4-4-4-4--4-4-4-4-4-4-4-4--6-6-6-6-6-6-6-6--6-6-6-6-6-6-6-6-|

bridge (guitar 2):
--------(2x)----------------------(2x)---------------------(2x)------------|
---------------------------------------------------12-12-12-12-12-12-12-12-|
-11-11-11-11-11-11-11-11--13-13-13-13-13-13-13-13--------------------------|
-11-11-11-11-11-11-11-11--13-13-13-13-13-13-13-13--10-10-10-10-10-10-10-10-|
--9--9--9--9--9--9--9--9--11-11-11-11-11-11-11-11--------------------------|
---------------------------------------------------------------------------|

--------(2x)----------------------(2x)------------|
--------------------------------------------------|
-11-11-11-11-11-11-11-11--13-13-13-13-13-13-13-13-|
-11-11-11-11-11-11-11-11--13-13-13-13-13-13-13-13-|
--9--9--9--9--9--9--9--9--11-11-11-11-11-11-11-11-|
--------------------------------------------------|

bridge:
I think you already know
How far Iíd go not to say
You know the art is gone
And Iím taking my song to the grave

solo:
-----------8-----11--10-------------8-----11--10-----------11----14---14---13--|
---7---9--11b----14b-13b----7---9--11b----14b-13b---7---9--14b---17b--17b--16b-|
---9b-11b-------------------9b-11b------------------9b-11b---------------------|
-------------------------------------------------------------------------------|
-------------------------------------------------------------------------------|
-------------------------------------------------------------------------------|

chorus riff 1:
Whatever you do
Don't tell anyone
Whatever you do
Don't tell anyone

chorus riff 2:
Whatever you do
Don't tell anyone
Whatever you do
Don't tell