X===============================PLEASE NOTE=====================================
X This tab belongs to its author and represents his interpretation of the song.
X You may only use this tab for private study, scholarship, or research.
X Do not change, deface, mutilate, or in any other way alter this tab.
X You must email the author first if you want to use this tab on your site.
X===============================================================================

The Lost Art of Keeping a Secret
tabbed by thefade.org

Tuning - C F Bb Eb G C

verse:
------------------------------------------------------------------------|
---8-8-8-8-8-8-8-8------------------------------------------------------|
---9-9-9-9-9-9-9-9--8-8-8-8-8-8-8-8--7-7-7-7-7-7-7-7--6-6-6-6-6-6-6-6---|
---9-9-9-9-9-9-9-9--9-9-9-9-9-9-9-9--8-8-8-8-8-8-8-8--7-7-7-7-7-7-7-7---|
---7-7-7-7-7-7-7-7--9-9-9-9-9-9-9-9--8-8-8-8-8-8-8-8--7-7-7-7-7-7-7-7---|
--------------------7-7-7-7-7-7-7-7--6-6-6-6-6-6-6-6--5-5-5-5-5-5-5-5---|
palm mute------------------------------------------------------------

--------------|
--------------|
--------------|
---7b--5------|
----------7---|
--------------|

verse:
Well, Iíve got a secret, I cannot say
A modern movement to give it away
Youíve got somethin that I understand
Hold it in tightly, call on command
Leap of faith, do you doubt?
Cut you in, I just cut you out

chorus riff 1 (guitar 1):
------------------------------------------------------------------------------|
--8-8-8-8-8-8-8-8-------------------------------------------------------------|
--9-9-9-9-9-9-9-9--8-8-8-8-8-8-8-8--7-7-7-7-7-7-7-7--4-4-4-4-4-4-4-4--6--8----|
--9-9-9-9-9-9-9-9--9-9-9-9-9-9-9-9--8-8-8-8-8-8-8-8--5-5-5-5-5-5-5-5--7--9----|
--7-7-7-7-7-7-7-7--9-9-9-9-9-9-9-9--8-8-8-8-8-8-8-8--5-5-5-5-5-5-3-3--7--9----|
-------------------7-7-7-7-7-7-7-7--6-6-6-6-6-6-6-6--3-3-3-3-3-3-3-3--5--7----|

chorus riff 1 (guitar 2):
-----------------------------------------------------------------------|
-----------------------------------------------------------------------|
---9-9-9-9-9-9-9-9--16-16-16-16-16-16-16-16--15-15-15-15-15-15-15-15---|
---9-9-9-9-9-9-9-9--16-16-16-16-16-16-16-16--15-15-15-15-15-15-15-15---|
---7-7-7-7-7-7-7-7--14-14-14-14-14-14-14-14--13-13-13-13-13-13-13-13---|
-----------------------------------------------------------------------|

----------------------------|
----------------------------|
---12-12-12-12-12--14--16---|
---12-12-12-12-12--14--16---|
---10-10-10-10-10--12--14---|
----------------------------|

chorus riff 1:
Whatever you do
Donít tell anyone
Whatever you do
Donít tell anyone

verse:
Look for reflections, in your face
Canine devotion, time canít erase
Out on the corner or locked in your room
I never believe them and I never assume
Stuck in believe there is a lie
Promise is promise, an eye for an eye
But weíve got something to reveal
No one can know how we feel

chorus riff 2 (guitar 1):
-------------------------------------------------------------------------|
---8-8-8-8-8-8-8-8-------------------------------------------------------|
---9-9-9-9-9-9-9-9--7-7-7-7-7-7-7-7--4-4-4-4-4-4-4-4--3-3-3-3--2-2-2-2---|
---9-9-9-9-9-9-9-9--8-8-8-8-8-8-8-8--5-5-5-5-5-5-5-5--4-4-4-4--3-3-3-3---|
---7-7-7-7-7-7-7-7--8-8-8-8-8-8-8-8--5-5-5-5-5-5-5-5--4-4-4-4--3-3-3-3---|
--------------------6-6-6-6-6-6-6-6--3-3-3-3-3-3-3-3--2-2-2-2--1-1-1-1---|

chorus riff 2 (guitar 2):
-----------------------------------------------------------------------------|
-----------------------------------------------------------------------------|
---9-9-9-9-9-9-9-9--15-15-15-15-15-15-15--12-12-12-12-12-12-12-11-11-11-11---|
---9-9-9-9-9-9-9-9--15-15-15-15-15-15-15--12-12-12-12-12-12-12-11-11-11-11---|
---7-7-7-7-7-7-7-7--13-13-13-13-13-13-13--10-10-10-10-10-10-10--9--9--9--9---|
-----------------------------------------------------------------------------|

-----------------|
-----------------|
---10-10-10-10---|
---10-10-10-10---|
----8--8--8--8---|
-----------------|

chorus riff 1:
Whatever you do
Don't tell anyone
Whatever you do
Don't tell anyone

chorus riff 2:
Whatever you do
Don't tell anyone

chorus riff 1:
Whatever you do
Don't tell anyone

bridge (guitar 1):
----------------------------------------------------------------------|
----------------------------------------------------------------------|
--------------------------------------------16-16-16-16-16-16-16-16---|
---8-8-8-8-8-8-8-8-10-10-10-10-10-10-10-10----------------------------|
---8-8-8-8-8-8-8-8-10-10-10-10-10-10-10-10--14-14-14-14-14-14-14-14---|
---6-6-6-6-6-6-6-6--8--8--8--8--8--8--8--8----------------------------|

---------------------------------------------|
---------------------------------------------|
---------------------------------------------|
---8-8-8-8-8-8-8-8-10-10-10-10-10-10-10-10---|
---8-8-8-8-8-8-8-8-10-10-10-10-10-10-10-10---|
---6-6-6-6-6-6-6-6--8--8--8--8--8--8--8--8---|

bridge (guitar 2):
----------------------------------------------------------------------------------|
----------------------------------------------------------------------------------|
---15-15-15-15-15-15-15-15--17-17-17-17-17-17-17-17--16-16-16-16-16-16-16-16-16---|
---15-15-15-15-15-15-15-15--17-17-17-17-17-17-17-17-------------------------------|
---13-13-13-13-13-13-13-13--15-15-15-15-15-15-15-15--14-14-14-14-14-14-14-14-14---|
----------------------------------------------------------------------------------|

------------------------------------------------------|
------------------------------------------------------|
---15-15-15-15-15-15-15-15--17-17-17-17-17-17-17-17---|
---15-15-15-15-15-15-15-15--17-17-17-17-17-17-17-17---|
---13-13-13-13-13-13-13-13--15-15-15-15-15-15-15-15---|
------------------------------------------------------|
bridge:
I think you already know
How far Iíd go not to say
You know the art is gone
And Iím taking my song to the grave

solo:
-----------12-----15--13------------12-----15--13-----------15----18---18---17----|
---11--12--15b----18b-16b---11--12--15b----18b-16b--11--12--18b---21b--21b--20b---|
---14b-15b------------------14b-15b-----------------14b-15b-----------------------|
----------------------------------------------------------------------------------|
----------------------------------------------------------------------------------|
----------------------------------------------------------------------------------|

chorus riff 1:
Whatever you do
Don't tell anyone
Whatever you do
Don't tell anyone

chorus riff 2:
Whatever you do
Don't tell anyone
Whatever you do
Don't tell

end (guitar 1):
--------------------|
--------------------|
-------9\-----------|
-------9\---5-7-9---|
-------7\---5-7-9---|
---0-0------3-5-7---|

guitar 2:
-----------------------|
-----------------------|
-------9\---12-14-16---|
-------9\---12-14-16---|
-------7\---10-12-14---|
---0-0-----------------|