X===============================PLEASE NOTE=====================================
X This tab belongs to its author and represents his interpretation of the song.
X You may only use this tab for private study, scholarship, or research.
X Do not change, deface, mutilate, or in any other way alter this tab.
X You must email the author first if you want to use this tab on your site.
X===============================================================================

How to Handle a Rope
tabbed by thefade.org

Tuning - C F Bb Eb G C

main riff:
------------------------------------------|
------------------------------------------|
------------------------------------------|
---7-7-7-7-7-7-5-10-10-10-10-10-10--12b---|
---7-7-7-7-7-7-5-10-10-10-10-10-10--------|
---5-5-5-5-5-5-3--8--8--8--8--8--8--------|

main riff:
Too late to think or filter anymore
A bitter pill to swallow
Maybe youíre in a blanket haze of ephedrine
Iím wonderin where the hell you been
So come on and right this wrong the rope

chorus:
--------------------------------------------------------------------|
--------------------------------------------------------------------|
--------------------------------------------------------------------|
---7-7-7-7-7-7--10-10-10-10-10-10--11-11-11-11-11-11--5-5-5-5-5-5---|
---7-7-7-7-7-7--10-10-10-10-10-10--11-11-11-11-11-11--5-5-5-5-5-5---|
---5-5-5-5-5-5---8--8--8--8--8--8---9--9--9--9--9--9--3-3-3-3-3-3---|

chorus:
You got it all right
You got a feeling
Iíd rather open up my wrist, let it go
You got it all right
You got a feeling
Cause devils and ropes around your neck
Cursing them all
And you canít hear it
Canít hear it

main riff:
Ainít got a mind to deal with anymore
Sabatuer, infiltrator, and maybe more
If youíre not blind and deaf, how can we pollute your head?
So come on and right this wrong the rope

chorus:
And I got it all right
I got a feeling
Youíd rather open up your wrist, let it go
I got it all right, yeah
I got a feeling
Cause devils and ropes around my neck canít even know
Cause they canít hear it
main riff:
Can't hear it

outro:
-------------------------------------|
-------------------------------------|
-------------------------------------|
---7-7-9-9-11-11-13-13-15-15-15-15---|
---7-7-9-9-11-11-13-13-15-15-15-15---|
---5-5-7-7--9--9-11-11-13-13-13-13---|

solo:
------------------------------------------------------------------------|
---16b-16b--16-16-16-14-16-14--16-14-12-14----12-14b--14b-12----14------|
-------------------------------------------14----------------15----14---|
------------------------------------------------------------------------|
------------------------------------------------------------------------|
------------------------------------------------------------------------|

--------------------------------------------------------------|
--------------------------------------------------------------|
--------------------------------------------------------------|
---12-14----12-15-14-12----12-14-12---------------------------|
---------14-------------14----------14-12-14------------------|
---------------------------------------------12--12--10--10---|

---------------------------------------|
---------------------------------------|
---------------------------12-14-16b---|
---------------------12-14-------------|
------------12-14-12-------------------|
---12-14-12----------------------------|