X===============================PLEASE NOTE=====================================
X This tab belongs to its author and represents his interpretation of the song.
X You may only use this tab for private study, scholarship, or research.
X Do not change, deface, mutilate, or in any other way alter this tab.
X You must email the author first if you want to use this tab on your site.
X===============================================================================

Kyuss: El Rodeo
From the album: '...And The Circus Leaves Town' (Elektra)
1995 Elektra Records
Lyrics by J. Homme
Music by Kyuss
Transcribed by Sean Hayter 2001

Tuning: Down 2 Whole Steps to C (C-F-Bb-Eb-G-C)
Notes: 'El Rodeo' is track #6 on '...And The Circus Leaves Town'

Intro:
C|--------------------------------------------------------|
G|-12~~~12h13h15p13-12h13p12~~~~-12\11~~~-------------8---|
Eb|----------------------------------------7~~-7-7-7-7---9-| (x3)
Bb|--------------------------------------------------------|
F|--------------------------------------------------------|
C|--------------------------------------------------------|

C|----------------------------------------12~~---------------|
G|-12~~~12h13h15p13-12h13p12~~~~-12\11~~~----------------8---|
Eb|-----------------------------------------------7-7-7-7---9-|
Bb|-----------------------------------------------------------|
F|-----------------------------------------------------------|
C|-----------------------------------------------------------|

C|--------------------------------------------------------|
G|-12~~~12h13h15p13-12h13p12~~~~-12\11~~~-------------8---|
Eb|----------------------------------------7~~-7-7-7-7---9-| (x2)
Bb|--------------------------------------------------------|
F|--------------------------------------------------------|
C|--------------------------------------------------------|

C|-------------------------------------------12--12~~-----------|
G|-12~~~12h13h15p13-12h13p12~~~~-12\11~~~--12--12-----------8---|
Eb|--------------------------------------------------7-7-7-7---9-|
Bb|--------------------------------------------------------------|
F|--------------------------------------------------------------|
C|--------------------------------------------------------------|

C|--------------------------------------------------------||
G|-12~~~12h13h15p13-12h13p12~~~~-12\11~~~-------------8---||
Eb|----------------------------------------7~~-7-7-7-7---9-||
Bb|--------------------------------------------------------||
F|--------------------------------------------------------||
C|--------------------------------------------------------||

C|-------------------|-------------------------------||
G|-------------------|-------------------------------||
Eb|-9-9-9-9-9-9-9-9-9-|-12-12-12-12-12----11-11-11-11-||
Bb|-9-9-9-9-9-9-9-9-9-|-12-12-12-12-12----11-11-11-11-||
F|-7-7-7-7-7-7-7-7-7-|-10-10-10-10-10h11\-9--9--9--9-||
C|-------------------|-------------------------------||

Verse:
C|------------------------------------------------------------------------------------------||
G|------------------------------------------------------------------------------------------||
Eb|-12-12-12-12-12-12-12-12----11-11-11-11-11-11-11-11--7h9-9-9-9-9-9-9-9--7h9-9-9-9-9-9-9-9-||
Bb|-12-12-12-12-12-12-12-12----11-11-11-11-11-11-11-11--7h9-9-9-9-9-9-9-9--7h9-9-9-9-9-9-9-9-||
F|-10-10-10-10-10-10-10-10h11--9--9--9--9--9--9--9--9--5h7-7-7-7-7-7-7-7--5h7-7-7-7-7-7-7-7-||
C|------------------------------------------------------------------------------------------||

Chorus:
C|-------------------------------------------------------------||
G|-------------------------------------------------------------||
Eb|-------------------------------------------------------------||
Bb|-------------------------------------------------------------||
F|-10~~~~~~~~~11-9~~~~~~~-5h7-7-7-7-7-7-7-7--5h7-7-7-7-7-7-7-7-||
C|-------------------------------------------------------------||

Lyrics:
Johnny, if you're trying to ride for free
Johnny, if you save my hero

Johnny, it's a bone to tie my jeans
Johnny, if you save my hero

Johnny, if you're trying to ride for free
Johnny, if you save my hero

Johnny, it's a bone to tie my jeans
Johnny, if you save my hero

Johnny, if you're trying to ride for free
Johnny, if you save my hero

Johnny, it's a bone to tie my jeans
Johnny, if you save my hero
Rodeo, Johnny, rodeo

If you're trying to ride for free
Rodeo

Rodeo, rodeo, rodeo, rodeo, rodeo, rodeo, rodeo, rodeo, rodeo