X===============================PLEASE NOTE=====================================
X This tab belongs to its author and represents his interpretation of the song.
X You may only use this tab for private study, scholarship, or research.
X Do not change, deface, mutilate, or in any other way alter this tab.
X You must email the author first if you want to use this tab on your site.
X===============================================================================

El Rodeo
tabbed by thefade.org

Tuning: C F Bb Eb G C

guitar 1 intro (Spanish-style):
-----------------------------------------------------------------------|
-----------------------------------------------------------------------|
---16----16-17-19-17--16h17p16-----16-15-------------------------------|
---------------------------------------------12-----12-12-12-12-15p4---|
-----------------------------------------------------------------------|
-----------------------------------------------------------------------|

variation 1:
-----------------------------------------------------------------------|
---------------------------------------------17------------------------|
---16----16-17-19-17--16h17p16-----16-15-------------------------------|
----------------------------------------------------12-12-12-12-15p4---|
-----------------------------------------------------------------------|
-----------------------------------------------------------------------|

variation 2:
-------------------------------------------------------------------------|
----------------------------------------------17--17---------------------|
---16----16-17-19-17--16h17p16-----16-15----16--16-----------------------|
------------------------------------------------------12-12-12-12-15p4---|
-------------------------------------------------------------------------|
-------------------------------------------------------------------------|

guitar 2 intro:
------------------------------------------------------------------|
------------------------------------------------------------------|
------------------------------------------------------------------|
---9-9-9----9-9-9-8--8-8----------------8-8---8-8-7----8-7--------|
-------------------------10-10-7--------------------10-----10-7---|
------------------------------------------------------------------|

guitar 2 intro 2:
----------------------------------------------------------|
----------------------------------------------------------|
----------------------------------------------------------|
---9-10-12-10--9-10-9-----9-8-----------------------------|
----------------------------------------------------------|
---------------------------------10---10-10-10-10-13p12---|

bridge (both guitars):
-----------------------------------------------------------------------|
-----------------------------------------------------------------------|
---9-9-9-9-9-9-9-9-9-9-9-9-12-12-12-12-12-12-14-11-11-11-11-11-11-12---|
---9-9-9-9-9-9-9-9-9-9-9-9-12-12-12-12-12-12-14-11-11-11-11-11-11-12---|
---7-7-7-7-7-7-7-7-7-7-7-7-10-10-10-10-10-10-12--9--9--9--9--9--9-10---|
-----------------------------------------------------------------------|

riff 1:
---------------------------------------------------------------|
---------------------------------------------------------------|
---7/9-9-9-9-9-9-9--7/9-9-9-9-9-9-9--12-12-12-12-12-12-12-12---|
---7/9-9-9-9-9-9-9--7/9-9-9-9-9-9-9--12-12-12-12-12-12-12-12---|
---5/7-7-7-7-7-7-7--5/7-7-7-7-7-7-7--10-10-10-10-10-10-10-10---|
---------------------------------------------------------------|

----------------------------|
----------------------------|
--11-11-11-11-11-11-11-11---|
--11-11-11-11-11-11-11-11---|
---9--9--9--9--9--9--9--9---|
----------------------------|

riff 2:
------------------------------------------------------------|
------------------------------------------------------------|
---12--------14-11-------7/9-9-9-9-9-9-9--7/9-9-9-9-9-9-9---|
---12--------14-11-------7/9-9-9-9-9-9-9--7/9-9-9-9-9-9-9---|
---10--------12--9-------5/7-7-7-7-7-7-7--5/7-7-7-7-7-7-7---|
------------------------------------------------------------|
let ring---------------|

outro:
----------------------|
----------------------|
---7/9-9-9-9-9-9-9----|
---7/9-9-9-9-9-9-9----|
---5/7-7-7-7-7-7-7----|
----------------------|

guitar 1 intro 3x

drums come in
guitar 1 intro w/variation 1 1x

guitar 1 intro 1x
guitar 2 intro 1x

guitar 1 intro 1x
guitar 2 intro 2 1x

guitar 1 intro w/variation 2 1x
guitar 2 intro 2 1x

guitar 1 intro 1x (no guitar 2)

bridge 1x (both guitars)

riff 1:
Johnny
And if youíre tryin to ride for free
Oh, Johnny
If youíre the same I give ya
Johnny
And if you wanna turn my jeans
Oh, Johnny
You get the same idea
Johnny
And if you tryin to ride for free
Oh, Johnny
Itíll be the same idea
Johnny
And if youíre grown in time my needs
Oh, Johnny
Itíll be same idea
Johnny
And if youíre tryin to ride for free
Johnny
Itíll be the same idea
Johnny
Rodeo
Johnny

riff 2:
And if youíre tryin to ride for free
Rodeo

outro:
Rodeo

end on:
-------|
-------|
---9---|
---9---|
---7---|
-------|