X===============================PLEASE NOTE=====================================
X This tab belongs to its author and represents his interpretation of the song.
X You may only use this tab for private study, scholarship, or research.
X Do not change, deface, mutilate, or in any other way alter this tab.
X You must email the author first if you want to use this tab on your site.
X===============================================================================

Regular John
tabbed by thefade.org

Tuning - C F Bb Eb G C

intro/verse rhythm:
-------------------|
-------------------|
---9-9-9-9-9-9-9---|
---9-9-9-9-9-9-9---|
---7-7-7-7-7-7-7---|
-------------------|

intro lead:
--------------------|
---15----------19---|
-------12--18-------|
--------------------|
--------------------|
--------------------|

riff 1 (rob lavecchia):
C--------------------------------|
G--------------------------------|
Bb-------------------------------|
Eb--21-21-21---21---21-21-21---21|
F---19-19-19---22---19-19-19---21| x4
C---0--0--0----0----0---0--0----0|

fill 1:
------------------------|
------------------------|
----------10------------|
---7-9-10-10-12-12-12---|
---7-9-10--8-12-12-12---|
---5-7--8----10-10-10---|

chorus rhythm:
----------------------------------|
----------------------------------|
----------------------------------|
---12-12-12-12-12-7-----9-9-9-9---|
---12-12-12-12-12-7-----9-9-9-9---|
---10-10-10-10-10-5-0-0-7-7-7-7---|

chorus 1 lead:
------------------------------------------------------------------------|
------------------------------------------------------------------------|
------------------------------------------------------------------------|
------------------12-14-12-14p12----12-14-12-14-14b---14p12-------------|
---------10-12-14----------------14------------------------14--10--12---|
---10-12----------------------------------------------------------------|

chorus 2 lead:
-------------------------------------------|
---17b--17--------17b---17-----------------|
-----------16--------------16--------------|
--------------14--------------14--17--14---|
-------------------------------------------|
-------------------------------------------|

interlude:
---------------------------------------------------------------------|
---------------------------------------------------------------------|
---9-9--9-9-9--9-9-9--9-9-9--9-11-11--11-11-11--11-11-11--11-11h12---|
---9-9--9-9-9--9-9-9--9-9-9--9-11-11--11-11-11--11-11-11--11-11h12---|
---7-7--7-7-7--7-7-7--7-7-7--7--9--9---9--9--9---9--9--9---9--9h10---|
---------------------------------------------------------------------|

chorus 3 lead:
-----------------------------------------------------------------|
-----------------------------------------------------------------|
------------------------------------------12----12-14b---14-12---|
------------------12-14-12-14p12----12-14----14------------------|
---------10-12-14----------------14------------------------------|
---10-12---------------------------------------------------------|

------------------------------------------------|
---17b--17p15--------17b--17p15-----------------|
--------------16----------------16--------------|
-----------------14----------------14--17--14---|
------------------------------------------------|
------------------------------------------------|

intro/intro lead 4x

intro 4x

riff 1 4x

verse:
Who are you girl?
Who are you boy?

fill 1

Bet I know what youíre up to
Can I come along

fill 1

Your home numberís on the wall
I just had to call

fill 1

Had to
Iím not the only one
Who will run with a knife

fill 1

chorus 1:
Open up your eyes
Open up your room
Open up your arms

riff 1 4x

verse:
One six two seven eight
Two six three seven eight nine

fill 1

Whereís your daddy now
I heard he ran away

fill 1

Who are you girl?
Cause Iím so bored with myself

fill 1

Anyway
Any time and any place
Iíll just hang around

fill 1

chorus 2:
Open up your eyes
Open up your room
Open up arms

interlude

verse:
One six two seven eight
Two six three seven eight nine

fill 1

chorus 3:
open up your eyes
open up your room
open up your arms
open up your door
open up your eyes
open up your room