X===============================PLEASE NOTE=====================================
X This tab belongs to its author and represents his interpretation of the song.
X You may only use this tab for private study, scholarship, or research.
X Do not change, deface, mutilate, or in any other way alter this tab.
X You must email the author first if you want to use this tab on your site.
X===============================================================================

Kyuss: Odyssey
From the album: 'Welcome To Sky Valley' (Elektra)
1995 Elektra Records
Lyrics by J. Homme
Music by Kyuss
Transcribed by Sean Hayter 2001

Tuning: Down 2 Whole Steps to C (C-F-Bb-Eb-G-C)
Notes: 'Odyssey' is track #3 Pt. 1 on 'Welcome To Sky Valley'

Intro/Bridge: (clean tone) 1. 2.
C|-----------------------------|-----------|------------||
G|-----------------------------|-----------|------------||
Eb|-----------------------------|-----------|-7----7-----||
Bb|-7/9--9--9--99-99-10p9--10p9-|-7--77--77-|---9p7--9p7-||
F|-----------------------------|-----------|------------||
C|-----------------------------|-----------|------------||

Verse: Verse Ending:
C|--------------------------------|------------------------------------||
G|--------------------------------|------------------------------------||
Eb|--------------------------------|------------------------------------||
Bb|-9--9-9-12\9-9-12\9-9-9-9-5--7--|-9--9-9-12\9-9-12\9-9-12\9-12-9-9-9-||
F|-7--7-7-10\7-7-10\7-7-7-7-3--5--|-7--7-7-10\7-7-10\7-7-10\7-10-7-7-7-||
C|--------------------------------|------------------------------------||

Chorus: (x2)
C|--------------------------------------------------||
G|--------------------------------------------------||
Eb|-------------9~~~-------------------9----9--------||
Bb|-------9-9-9------------------9-9-9----9----------||
F|-7--7------------5---5--7--7----------------5---5-||
C|-0--0------------3-0-3--0--0----------------3-0-3-||

Rhythm Fill 1: (After 1st Chorus)
C|-----------------------||
G|-----------------------||
Eb|-----------------------||
Bb|-----------------------||
F|-2---------5--5--5--5--||
C|-0-------0-3--3--3--3--||

Post Chorus: (After 2nd & 3rd Chorus' only)
C|-------------------------||
G|-------------------------||
Eb|-------------9----9--b-r-||
Bb|-------9-9-9----9--------||
F|-7--7--------------------||
C|-0--0--------------------||

Rhythm Fill 2: (Between 1st Post Chorus and Solo)
C|----------------||
G|----------------||
Eb|---------7-9--\-||
Bb|-----7-9--------||
F|-7-9------------||
C|----------------||

The Solo in played on a clean guitar tone and leads into the Bridge (the
Intro riff).

Coda: (After 2nd Post Chorus)
C|--------------------------------||
G|--------------------------------||
Eb|--------------------------------||
Bb|-2------------------------------||
F|-2-----------------5--5--5--5-2-||
C|-0---------------0-3--3--3--3-0-||

Lyrics:
Take one to the mountain
Take one to the sea
Take one to the belly of the beast
And then you take one with me

Shove it
Shove it

Freezing in the fires
Well I order high your name
One you return from the belly of the beast
You're never quite the same

Shove it
Shove it all
Shove it
Shove it all

Fire on the mountain
It rages out of control
The fire inside the belly of the beast
Will then burn thin right your soul

Shove it
Shove it all
Shove it
Shove it all