X===============================PLEASE NOTE=====================================
X This tab belongs to its author and represents his interpretation of the song.
X You may only use this tab for private study, scholarship, or research.
X Do not change, deface, mutilate, or in any other way alter this tab.
X You must email the author first if you want to use this tab on your site.
X===============================================================================


Nova
Desert Sessions vol. 3
tabbed by thefade.org

Tuning - D G C F A D

intro:
----------------------|---------------------------------------------------|
----------------------|---------------------------------------------------|
----------------------|---------------------------------------------------|
------------9---------|--------------10--------------------12-------------|
---9---9--------------|---10---10---------------12----12------------------|
-----7---7----7-7-7---|------8----8-----8-8-8------10----10----10-10-10---|

main riff:
-------------------------------------------------------------------|
-------------------------------------------------------------------|
---4-4-4-4-4-4-4-4-5-5-5-5-5-5-5-5-7-7-7-7-7-7-7-7-7-7-7-7-7-5-4---|
---4-4-4-4-4-4-4-4-5-5-5-5-5-5-5-5-7-7-7-7-7-7-7-7-7-7-7-7-7-5-4---|
---2-2-2-2-2-2-2-2-3-3-3-3-3-3-3-3-5-5-5-5-5-5-5-5-5-5-5-5-5-3-2---|
-------------------------------------------------------------------|

main riff:
Feels so good to have it
Canít stop that broken faucet
Now and again, spill to the floor
Iím up to my neck and Iím swimmin to you
Step in the nude, Iím singin the blues

chorus 1:
-----------------------------------------------------------------------------|
-----------------------------------------------------------------------------|
---4-4-4-4-3-3-3-3-7-7-7-7-----------------9-9-9-9-4-4-4-4-5-5-5-5-7-7-7-7---|
---4-4-4-4-3-3-3-3-7-7-7-7-6-6-6-6-5-5-5-5-9-9-9-9-4-4-4-4-5-5-5-5-7-7-7-7---|
---2-2-2-2-1-1-1-1-5-5-5-5-6-6-6-6-5-5-5-5-7-7-7-7-2-2-2-2-3-3-3-3-5-5-5-5---|
---------------------------4-4-4-4-3-3-3-3-----------------------------------|

chrous 1:
If I canít sing my blues
Can I drink my booze
I have paid my dues
You can hide like fools, oh yeah

main riff:
Feels so good to have it
Feels so good to have it
Thereís no more we can do
Hey, it is true
Now I am through

chorus 2:
---------------------------------------------------------------------|
---------------------------------------------------------------------|
---4-4-4-4-3-3-3-3-7-7-7-7-----------------9-9-9-9-4-4-4-4-5-5-5-5---|
---4-4-4-4-3-3-3-3-7-7-7-7-6-6-6-6-5-5-5-5-9-9-9-9-4-4-4-4-5-5-5-5---|
---2-2-2-2-1-1-1-1-5-5-5-5-6-6-6-6-5-5-5-5-7-7-7-7-2-2-2-2-3-3-3-3---|
---------------------------4-4-4-4-3-3-3-3---------------------------|

--------------------------------------------------|
--------------------------------------------------|
---7-7-7-7---------12-12-12-12-9-9-9-9------------|
---7-7-7-7-6-6-6-6-12-12-12-12-9-9-9-9-9-9-9-9-9--|
---5-5-5-5-6-6-6-6-10-10-10-10-7-7-7-7-9-9-9-9-9--|
-----------4-4-4-4---------------------7-7-7-7-7--|

chorus 2:
If I canít sing my blues
Can I drink my booze
I have paid my dues
You can hide like fools, oh yeah

intro riff:
Feels so good to have it
Feels so good to have it

solo (intro riff played under):
--------------------------------------------------------------|
--------------------------------------------------------------|
-------------------------------17--16-14-14--14-14-16-14-14---|
---/14-14b--12-----------14-12--------------------------------|
---------------14--14-14--------------------------------------|
--------------------------------------------------------------|

------------------------------------------------------------|
-------------------------------------------------20---------|
---16-16-17-16-16-17-19-17-19-19-21-19-19--19-19----19------|
-------------------------------------------------------19---|
------------------------------------------------------------|
------------------------------------------------------------|

intro riff