X===============================PLEASE NOTE=====================================
X This tab belongs to its author and represents his interpretation of the song.
X You may only use this tab for private study, scholarship, or research.
X Do not change, deface, mutilate, or in any other way alter this tab.
X You must email the author first if you want to use this tab on your site.
X===============================================================================

Monsters in the Parasol
tabbed by Jeroen Duller
Tuning - Standard!
intro/verse:
-----------------------------|-----------------|
-------------------------5---|-----------------|
-------------------------5---|-----------------|
---7-7-7-7-7-7-7-7-7-7-7-5---|---5-5-5-5-5-5---|
---7-7-7-7-7-7-7-7-7-7-7-----|---5-5-5-5-5-5---|
---5-5-5-5-5-5-5-5-5-5-5-----|---3-3-3-3-3-3---|

intro

verse:
The walls are closing in again, oh well
The walls are closing in again, oh well
I seen some thing I thought I never saw
Covered in hair

Paulís dad is warped and bubbling, oh well
Paulís dad is warped and bubbling, oh well
And my mind is up here on another wave
Covered in hair

pre-chorus: guitar 1 (left channel)
--------------------------|
--------------------------|
--------------------------|
--------------------------|
---12-11-10-9-10-11-12-11-|
--------------------------|

guitar 2 (right channel):
---------------------|
---------------------|
---------------------|
---------------------|
---------------------|
--10-9-8-7-8-9-10-9--|

pre-chorus:
She won't grow

riff 1:
------------------------------------|
------------------------------------|
---8-8-8-8-8-8-8-8--5-5-5-5-5-5-5-5-|
---8-8-8-8-8-8-8-8--5-5-5-5-5-5-5-5-|
---6-6-6-6-6-6-6-6--3-3-3-3-3-3-3-3-|
------------------------------------|

------------------------------------------|
------------------------------------------|
---10-10-10-10-10-10--11-11-11-11-11-11---|
---10-10-10-10-10-10--11-11-11-11-11-11---|
----8--8--8--8--8--8---9--9--9--9--9--9---|
------------------------------------------|

chorus: guitar 1
---------------------------------|
---------------------------------|
---9-9-9-9-9-9-------------------|
---------------10-10-10-10-10-10-|
---------------------------------|
---------------------------------|

---------------------------------------|
---------------------------------------|
------------------7-8-7--------9-8-9---|
---8-8-8-8-8-8-8--------8-8-8----------|
---------------------------------------|
---------------------------------------|

guitar 2:
-----------------------------|
-------------------------9---|
--------------------5-7------|
--------7-6---7--------------|
---5-------------------------|
-----------------------------|

chorus:
Youíve got a monster (distress) in your parasol (body out)
Youíve got a monster (dwarves, doors?) in your parasol (of course)
Youíve got a monster (displeasure) in your parasol (I told you)
Youíve got a monster (?) in your parasol (xnay)

verse:
Paulís sistr is an alien, oh well
Paulís sister is an alien, oh well
I seen some things I thought I never saw
Covered in hair

pre-chorus:
She won't grow

chorus:
Youíve got a monster (distress, my pest) in your parasol
Youíve got a monster (drawves) in your parasol (war horse)
Youíve got a monster (displeasure) in your parasol (?)
Youíve got a hole in you I never saw (insane)
In your parasol, in your parasol

end on: guitar 1 (left channel)
---------------------|
---------------------|
---------------------|
---7-6-5-4-5-6-7-6---|
---------------------|
---------------------|

guitar 2 (right channel):
---------------------|
---------------------|
---------------------|
---------------------|
---5-4-3-2-3-4-5-4---|
---------------------|