X===============================PLEASE NOTE=====================================
X This tab belongs to its author and represents his interpretation of the song.
X You may only use this tab for private study, scholarship, or research.
X Do not change, deface, mutilate, or in any other way alter this tab.
X You must email the author first if you want to use this tab on your site.
X===============================================================================

Kyuss: Molten Universe
From the album: 'Blues For The Red Sun' (Dali)
1992 Dali Records
Music by Kyuss
Transcribed by Sean Hayter 2001

Tuning: Down 2 Whole Steps to C (C-F-Bb-Eb-G-C)
Notes: 'Molten Universe' is track #3 on 'Blues For The Red Sun'

Intro/Main Riff: x2
C|----------------------------------------------------------|
G|----------------------------------------------------------|
Eb|----------------------------------------------------------|
Bb|-----------5------------5---------------------------------|
F|---7-----7-----7------7-----7-5^-^5--------7----------7^~-|
C|-0---5-0-----0---5-0------0---------5---5-----5-6---6-----|

C|----------------------------------------------------------|
G|----------------------------------------------------------|
Eb|----------------------------------------------------------|
Bb|----------------------------------------------------------|
F|---7-----7-----7------7-----7-5^-^5--------7----------7^~-|
C|-0---5-0---5-0---5-0----5-0---------5---5-----5-6---6-----|

C|----------------------------------------------------------||
G|----------------------------------------------------------||
Eb|----------------------------------------------------------||
Bb|-----------5------------5---------------------------------||
F|---7-----7-----7------7-----7-5^-^5--------7----------7^~-||
C|-0---5-0-----0---5-0------0---------5---5-----5-6---6-----||

Chorus/Bridge:
C|------------------------------------------------------------||
G|------------------------------------------------------------||
Eb|------------------------------------------------------------||
Bb|------------------------------------------------------------||
F|-2-2---2-2---2-2---2-2---2--2-7-7---7-7---7-7--7--8-8-8-8-8-||
C|-0-0---0-0---0-0---0-0---0--0-5-5---5-5---5-5--5--6-6-6-6-6-||

(then play intro main riff at double-time speed)

Main Riff Fill: (play along with main riff near end)
C|-------------------------------------------------------------------------------------||
G|---------------------------h---------------------------------------------------------||
Eb|-14^-^14-12~-------------12^14-14^-^14-12----------------14^-^14-12------p------12~--||
Bb|------------------------------------------14~-----------------------14-14^12-14------||
F|-------------------------------------------------------------------------------------||
C|-------------------------------------------------------------------------------------||

Lyrics:
N/A - Instrumental