X===============================PLEASE NOTE=====================================
X This tab belongs to its author and represents his interpretation of the song.
X You may only use this tab for private study, scholarship, or research.
X Do not change, deface, mutilate, or in any other way alter this tab.
X You must email the author first if you want to use this tab on your site.
X===============================================================================

Mexicola
tabbed by thefade.org

Tuning - C F Bb Eb G C

intro riff 1:
------------------------------|
-------------------------7----|
-------9-8-----9-8-------9b---|
-------9-8-----9-8------------|
-------7-6-----7-6------------|
---0-0-----0-0-----0-0-0------|

intro riff 2:
----------------------------------|
-----------------------------7----|
-------9-8h9----9-8h9--------9b---|
-------9-8h9----9-8h9-------------|
-------7-6h7----7-6h7-------------|
---0-0--------0-------0-0-0-------|

riff 1:
-----------------------------------------------------|
------------------------------7----------------------|
---12-12-12-12-12-12-12-12-12-9b-9-9-9-9-9-9-9-9-9---|
---12-12-12-12-12-12-12-12-12----9-9-9-9-9-9-9-9-9---|
---10-10-10-10-10-10-10-10-10----7-7-7-7-7-7-7-7-7---|
-----------------------------------------------------|

riff 2:
----------------------------------------|
---------------------7------------------|
---------------------9b-9-9-9-9-9-9-9---|
---5-5-5-5-5-5-5-5-5----9-9-9-9-9-9-9---|
---5-5-5-5-5-5-5-5-5----7-7-7-7-7-7-7---|
---3-3-3-3-3-3-3-3-3--------------------|

main riff 1:
-------------------------|
-------------------------|
--12-12-12-12--9-9-9-9---|
--12-12-12-12--9-9-9-9---|
--10-10-10-10--7-7-7-7---|
-------------------------|

main riff 2:
--------------------------|
--------------------------|
--------------9-9-9-9-9---|
---5-5-5-5-5--9-9-9-9-9---|
---5-5-5-5-5--7-7-7-7-7---|
---3-3-3-3-3--------------|

fill 1:
-----------------|
-----------------|
-----------------|
-----------------|
---5/7-10-7-10---|
-----------------|

fill 2:
-------------------|
-------------------|
-------------------|
-------------------|
---12b--10h12------|
--------------12---|

chorus:
-------------------------|
-------------------------|
-------11-----12-12-12---|
-------11-----12-12-12---|
--------9-----10-10-10---|
---0-0----0-0------------|

--------------------|
---14p12-14p12-14---|
--------------------|
--------------------|
--------------------|
--------------------|

intro riff 1 3x

intro riff 2 1x

intro riff 1 2x

intro riff 2 1x

intro riff 1 1x

riff 1 2x

main riff 1:
fill 1
Setting sun deals hands of gold

fill 2
Thereís velvet eyes in Mexico

fill 1
Just a fall away
And all she said was true

fill 1
Speak in tongues, speak in lies
Drooling livers, born to die

fill 2
Itís a wonder that those guns donít point at you

main riff 2 2x

chorus:
Keep sayin, go on, keep sayin, go on, keep sayin, you won't live forever

riff 2 1x

main riff 1:
fill 2
Point and shoot, I know just what you mean

fill 1
In a world thatís full of shit and gasoline, baby

fill 2
One dogís dead oneís on the phone
Just leave a lung or leave it alone

fill 2
Itís that same on song again
I hate it cause itís true

main riff 2 2x

intro riff 1 3x

intro riff 2 1x

intro riff 1 1x

intro riff 2 1x

intro riff 1 1x

intro riff 2 1x

chorus:
Keep sayin, go on, keep sayin, go on, keep sayin, you won't live forever

outro solo (played over the chorus riff):
--------------------------------------------------------------|
--------------------------------------------------------------|
---------------------------14b--------------------------14b---|
---14p12-14p12-14p12-12h14------14p12-14p12-14p12-12h14-------|
--------------------------------------------------------------|
--------------------------------------------------------------|

-----------------------------------------------15----------18--18-15------|
---14b--14p12----------------------------15h17----15-17-15-----------17---|
--------------12--12h14--------14p12-12-----------------------------------|
------------------------14--14--------------------------------------------|
--------------------------------------------------------------------------|
--------------------------------------------------------------------------|

---15-------------------------------------------------------------------|
------17-15-17-15------------------------------------14b--14p12-14p12---|
------------------15--12-14-12--15-12-12-------12h14--------------------|
-----------------------------------------12h14--------------------------|
------------------------------------------------------------------------|
------------------------------------------------------------------------|


chorus riff until end