X===============================PLEASE NOTE=====================================
X This tab belongs to its author and represents his interpretation of the song.
X You may only use this tab for private study, scholarship, or research.
X Do not change, deface, mutilate, or in any other way alter this tab.
X You must email the author first if you want to use this tab on your site.
X===============================================================================

Leg of Lamb
tabbed by thefade.org

Tuning - C F Bb Eb G C

verse - guitar 1 (left channel)
------------------------------------------------|
------------------------------------------------|
------------------------------------------------|
---10-11------------------10-11-----------------|
---------12--9p8h9---9----------12--9p8h9---9---|
------------------------------------------------|

verse - guitar 2 (right channel)
------------------------------------------|
------------------------------------------|
---11-11--------------11-11---------------|
---11-11--------------11-11---------------|
---9--9--9.75--9.75----9--9--9.75--9.75---|
------------------------------------------|

verse 2 - guitar 2 (guitar 1 plays verse 1 throughout)
--------------------------------------|
--------------------------------------|
---9--9---------------9--9------------|
---9--9---------------9--9------------|
---7--7---------------7--7------------|
---------8.75--8.75--------8.75--8.75-|

---------------------------------------|
---------------------------------------|
---10-10------------10-10--------------|
---10-10------------10-10--------------|
----8--8-------------8--8--------------|
---------9.75--9.75-------9.75--9.75---|

verse 1
Youíre a head case with a smile
Canít stop to make up your mind
verse 2
Education is so lame (so lame)
verse 1
When you bitch and you moan
Youíre a loose girl, Iím a guy (hey)
Youíre a truth freak with a lie
verse 2
The situation is so strange
verse 1
Itís a tv show
In a hotel on the phone
Youíre gonna leave me, I shouldíve known (shouldíve known)
verse 2
And I was thinkin, itís so sad
verse 1
I didnít want you to go
Donít wanna follow the laws of man
Bloody apron, leg of lamb
verse 2
Itís so hard to win
verse 1
When thereís so much to lose

verse 3 play 2x
------------------------------------------|
------------------------------------------|
---11-11--11-11--9-9--9-9--10-10--10-10---|
---11-11--11-11--9-9--9-9--10-10--10-10---|
----9--9---9--9--7-7--7-7---8--8---8--8---|
------------------------------------------|

----------------------------------------------------|
----------------------------------------------------|
----------------------------------------------------|
---11-11--11-11--12-12--12-12--7-7--7-7--9-9--9-9---|
---11-11--11-11--12-12--12-12--7-7--7-7--9-9--9-9---|
----9--9---9--9--10-10--10-10--5-5--5-5--7-7--7-7---|

------------------|
------------------|
------------------|
---11-11--11-11---|
---11-11--11-11---|
----9--9---9--9---|

Infiltrate the walls that are caving in
It ainít a bad thing
This ainít reality
Infiltrate the walls that are caving in
It ainít a bad thing
Because it is natural

lead 1
---16fb-16-16-16-16-16---17b-17b-----|
-------------------------------------|
-------------------------------------|
-------------------------------------|
-------------------------------------|
-------------------------------------|

---16fb-16-16-16-16-16--17fb-17-17-17-17-14---|
----------------------------------------------|
----------------------------------------------|
----------------------------------------------|
----------------------------------------------|
----------------------------------------------|
pick while gradually bending

verse 1
Second Avenue, raising Cain
Iím a sinner, ring my bell (hey)
Iíll tell you what, I get up
If I knew I fell