X===============================PLEASE NOTE=====================================
X This tab belongs to its author and represents his interpretation of the song.
X You may only use this tab for private study, scholarship, or research.
X Do not change, deface, mutilate, or in any other way alter this tab.
X You must email the author first if you want to use this tab on your site.
X===============================================================================

Infinity
tabbed by thefade.org

Tuning - C F Bb Eb G C

verse:
---------------------------------------------|
---------------------------------------------|
---------------------------------------------|
---------------------------------------------|
---10p7-10p7-10p7-7-7-10p7-10p7-10p7-7-7-7---|
---------------------------------------------|

lead 1:
------------------|
------------------|
---14-----12-14---|
------------------|
------------------|
------------------|

lead 2:
--------------|
--------------|
---17----14---|
--------------|
--------------|
--------------|

lead 3:
---17---|
--------|
--------|
--------|
--------|
--------|

fill 1:
---------------|
---------------|
---------------|
-----5-7p5-----|
---7-------7---|
---------------|

fill 2:
---------|
---------|
---------|
---------|
---/15---|
---------|

fill 3:
-----------------|
-----------------|
-----------------|
-----5h7---5h7---|
---7-----7-------|
-----------------|

fill 4:
------------------|
------------------|
--------------7---|
---7p5---5h7------|
-------7----------|
------------------|

chorus:
-------------------------------------------------|
-------------------------------------------------|
-------------------------------------------------|
---9-9-10-10-10-10-10-10-10-10--5-5--7-7-7-5-7---|
---9-9-10-10-10-10-10-10-10-10--5-5--7-7-7-5-7---|
---7-7--8--8--8--8--8--8--8--8--3-3--5-5-5-3-5---|

chorus lead (probably played on a keyboard):
1st time 4x 4x
-----------------|-----------------|--------------------|
---17h18p17-15---|---14h15p14-12---|---15-17-15p14h15---|
-----------------|-----------------|--------------------|
-----------------|-----------------|--------------------|
-----------------|-----------------|--------------------|
-----------------|-----------------|--------------------|

2nd time 3x 4x
-----------------|-----------------|------------------|--------------------|
---17h18p17-15---|---18h20-17h18---|---14h15p14--12---|---15-17-15p14h15---|
-----------------|-----------------|------------------|--------------------|
-----------------|-----------------|------------------|--------------------|
-----------------|-----------------|------------------|--------------------|
-----------------|-----------------|------------------|--------------------|

3rd time same as 1st

verse riff 2x

fill 1

verse riff 1x

fill 2

verse riff 1x

(band comes in)

verse riff w/lead 1 2x

fill 1

verse w/lead 1:
Got a hole in my head

fill 3

Everything falls right out

fill 1

Through my ears, through my eyes

fill 4

Makes no difference where you are

fill 2

You wanna know how I do it?
I do it all right

verse w/lead 2:
You wanna know how I do it?
I do it all right

chorus:
I got a hole and Iíll never go home
There ainít nothing can fill it up
I got a hole and Iíll never go home
There ainít no one thing

verse w/lead 1 4x

verse w/lead 2:
A new wrong (?)
A new wrong

verse w/lead 1:
You never get right back
A new wrong

verse w/lead 3:
You wanna know how I do it?
I do it all right

chorus:
I gotta hole and Iíll never go home
There ainít nothing that can fill it up
I gotta hole and Iíll never go home
There ainít no one thing out there

fill riff:
----------------------------------------------------------------------|
----------------------------------------------------------------------|
----------------------------------------------------------------------|
---7-7-7--9-9-9-9-9--10-10-10-10-10--12-12-12-12-12--14-14-14-14-14---|
---7-7-7--9-9-9-9-9--10-10-10-10-10--12-12-12-12-12--14-14-14-14-14---|
---5-5-5--7-7-7-7-7---8--8--8--8--8--10-10-10-10-10--12-12-12-12-12---|

outro:
-------------------------------------------------------------------------|
-------------------------------------------------------------------------|
-------------------------------------------------------------------------|
---7-7-7-9-7---9-9-9-10-9--10-10-10-12-10--12-12-12-14-12--14-14-14-14---|
-------------------------------------------------------------------------|
-------------------------------------------------------------------------|

fill riff 1x

solo:
---------------------------------------------------------------------------|
---17-17-17----------------------------------------------------------------|
------------------14-16-14-16--14-16------------------------12--12h14-14---|
-------------------------------------14-12--12h14-14--12h14----------------|
---------------------------------------------------------------------------|
---------------------------------------------------------------------------|

-----------------------------------------------------|
--------------------------21b---21-21-21-------19b---|
---12h14-16--14h16-19--21----------------21-21-------|
-----------------------------------------------------|
-----------------------------------------------------|
-----------------------------------------------------|

(can't hear 3:46-3:53)

3:53
------------------------------------------------------------------|
------------------------------------------------------------------|
---12----14-----------12----14------------------------------------|
------14----14-12-14-----14----14-12-14-14b--12-14-14--12-14-14---|
------------------------------------------------------------------|
------------------------------------------------------------------|

4:01
---------------------------------------------------------------------|
---21----------------------------------------------------------------|
------21-21-21-21--21-21-21--19-19-19--12-12-12--------------12-16---|
------------------------------------------------14-12--12-14---------|
---------------------------------------------------------------------|
---------------------------------------------------------------------|

4:08

------------------------------------------------------------------------|
------------------------------------------------------------------------|
---16-16-14-12----12--16-16-14-12----12-14--16-12-14-12----12-----19b---|
---------------14-----------------14--------------------14----12b-------|
------------------------------------------------------------------------|
------------------------------------------------------------------------|


outro w/solo:
Not me with a gun to my head
I can let it go
Not me with a gun to my head
I can let it go
So I sing

outro riff w/solo until end