X===============================PLEASE NOTE=====================================
X This tab belongs to its author and represents his interpretation of the song.
X You may only use this tab for private study, scholarship, or research.
X Do not change, deface, mutilate, or in any other way alter this tab.
X You must email the author first if you want to use this tab on your site.
X===============================================================================

Kyuss: I'm Not
From the album: 'Wretch' (Dali)
1991 Dali Records
Lyrics by J. Homme
Music by Kyuss
Transcribed by Sean Hayter 2001

Tuning: Down 2 Whole Steps to C (C-F-Bb-Eb-G-C)
Notes: 'I'm Not' is track #9 on 'Wretch'

Verse: x3 x1
C|----------------------|-----------------------------------------||
G|----------------------|-----------------------------------------||
Eb|----------------------|-----------------------------------------||
Bb|----------------------|-----------------------------------------||
F|-----7~---------------|-----7~-2222----2222----2222----22222222-||
C|-0-0----3p0-03p0-03p0-|-0-0----0000----0000----0000----00000000-||

Chorus: x3 x1
C|------------------------|-------------------------||
G|------------------------|-------------------------||
Eb|------------------------|-------------------------||
Bb|-----9----9/11-11/12-7--|-----9--1212121212121212-||
F|-----7----7/9--9-/10-5--|-----7--1010101010101010-||
C|-0-0----0---------------|-0-0---------------------||

Bridge Pt.1:
C|-----------------------------||
G|-----------------------------||
Eb|-------77-77-7-666-6-55-55-5-||
Bb|-2--2--77-77-7-666-6-55-55-5-||
F|-2--2--55-55-5-444-4-33-33-3-||
C|-0--0------------------------||

Bridge Pt.2:
C|-----------------------------||
G|-----------------------------||
Eb|-----------------------------||
Bb|-------77-77-7-666-6-55-55-5-||
F|-2--2--55-55-5-444-4-33-33-3-||
C|-0--0------------------------||

Bridge Ending:
C|--------------------------------------------------||
G|--------------------------------------------------||
Eb|--------------------------------------------------||
Bb|--------------------------------------------------||
F|-2---------------2222----2222----2222----22222222-||
C|-0---------------0000----0000----0000----00000000-||

Lyrics:
I'm not ready to leave this world
Bring as big as people
Well no-one told me about them

Sometimes, well it doesn't seem to matter
But I'll make mine a good one
Up with the clouds of hate

Only time will tell
Time will tell
Will tell

I'm not ready to leave this world
Bring as big as people
Well no-one told me about them

Sometimes, well it doesn't seem to matter
But I'll make mine a good one
Up with the clouds of hate

Only time will tell
Time will tell
Will tell
Time