X===============================PLEASE NOTE=====================================
X This tab belongs to its author and represents his interpretation of the song.
X You may only use this tab for private study, scholarship, or research.
X Do not change, deface, mutilate, or in any other way alter this tab.
X You must email the author first if you want to use this tab on your site.
X===============================================================================

If Only
tabbed by thefade.org

Tuning - C F Bb Eb G C

verse riff:
-------------------------------------------|
-------------------------------------------|
---8h10-10-10--7-7h9--5h7-7-7--5-5-7-7-7---|
---8h10-10-10--7-7h9--5h7-7-7--5-5-7-7-7---|
---8h8--8--8---7-7h7--5h5-5-5--5-5-5-5-5---|
-------------------------------------------|

chorus riff:
-----------|
-----------|
---7--10---|
---7--10---|
---5---8---|
-----------|

solo 1: 2x
------------------------------------------------------------------------|
------------------------------------------------------------------------|
------------------------------------------------------------------------|
------------------------------------------------------------------------|
---------10-14b--14b----10--10b--10p8----8--7h8p7--5h7p5--5-5--3--5-5---|
---10h12-------------10---------------10--------------------------------|

----------------------------------------------------------------------|
----------------------------------------------------------------------|
--------------------------------------------------------17-19-19------|
------15-17----17p15----15-17p15----15--19-19-19--17-19----------17---|
---17-------17-------17----------17-----------------------------------|
----------------------------------------------------------------------|

--------------------------------------------|
--------------------------------------------|
---19p17------------------------------------|
---------19p17-19p17-19p17-15-17--17b-------|
--------------------------------------17----|
--------------------------------------------|

1:30
----------------------------------------------------------------------------|
----------------------------------------------------------------------------|
------------------------------------19-19-17--19-19-17--19-17-19p17----17---|
---15-15-17p15-19-17-15h17-19-17-15---------------------------------17------|
----------------------------------------------------------------------------|
----------------------------------------------------------------------------|

solo 2:
--------------------------------------------------------------------------|
--------------------------------------------------------------------------|
---12-12-12-12--12-12-12-12--12-12-12-12--12-10-10-12p10------------------|
---------------------------------------------------------12-10-10h12-12---|
--------------------------------------------------------------------------|
--------------------------------------------------------------------------|

------------------------------------------------------------------------|
------------------------------------------------------------------------|
---12-12-12-12--12-12-12-12--12-12-12-12-12-13-12--10-12p10-------------|
------------------------------------------------------------12-10-12----|
------------------------------------------------------------------------|
------------------------------------------------------------------------|

--------------------|
--------------------|
---10----10-12------|
------12-------12---|
--------------------|
--------------------|

verse:
If it gets you down well then Iíll take it
If it gets you up well I donít want it
It let you down so broken hearted
If it gets you down well then I want it

chorus:
If only weíre nothing at all

solo 1

verse:
So blow our mind and make it lazy
Those long long days with no escaping
I hold the wheel to let it go
Donít wanna stop, donít wanna know
If it gets you down, well just donít blame me

chorus:
If only weíre nothing at all

solo 2