X===============================PLEASE NOTE=====================================
X This tab belongs to its author and represents his interpretation of the song.
X You may only use this tab for private study, scholarship, or research.
X Do not change, deface, mutilate, or in any other way alter this tab.
X You must email the author first if you want to use this tab on your site.
X===============================================================================

Kyuss: (Beginning of What's About To Happen) Hwy 74
From the album: 'Wretch' (Dali)
1991 Dali Records
Lyrics by J. Homme
Music by Kyuss
Tabbed by Sean Hayter 2001

Tuning: Down 2 Whole Steps to C (C-F-Bb-Eb-G-C)
Notes: '(Beginning of What's About To Happen) Hwy 74' is track #1 on 'Wretch'

Main Riff:
C|---------|-------------|----------------------|---------------------||
G|---------|-------------|----------------------|---------------------||
Eb|---------|-------------|----------------------|---------------------||
Bb|-7~~~~~~-|---------5-7-|-5h7p5h7p5h7p5-3~~----|-----7~~~--------5---||
F|---------|-----5-7-----|----------------------|-------------5-7-----||
C|---------|-5-5---------|----------------------|-5-5-----5-5---------||
There are ment variations on these riffs. Listen to the song to
make sense of the structure and timing.

Chorus Riff:
C|---------------------------------||
G|---------------------------------||
Eb|---------------------------------||
Bb|---------------------------------||
F|-8-8-8-8---------7-7-7-7---------||
C|---------5-5-5-5---------5-5-5-5-||

Lyrics:
In the middle of the highway
As you ride down the road
Just gettin' that fellin'
It's all so black and gold
Protectin' my face
When you're drivin' the desert sand
Open my hand, well open up the land

Well everyone now bring your cars to me
From the mother of earth to the depth of the sea
There's always just a hand from me
When you n-n-n-n-need me, yeah

In the middle of the highway
As you ride down the road
Just gettin' that fellin'
It's all so black and gold
Protectin' my face
When you're drivin' the desert sand
Open my hand, well open up the land

Well everyone now bring your cars to me
From the mother of earth to the depth of the sea
There's always just a hand from me, no, no
When you n-n-n-n-need me, yeah