X===============================PLEASE NOTE=====================================
X This tab belongs to its author and represents his interpretation of the song.
X You may only use this tab for private study, scholarship, or research.
X Do not change, deface, mutilate, or in any other way alter this tab.
X You must email the author first if you want to use this tab on your site.
X===============================================================================

Kyuss: Green Machine
From the album: 'Blues For The Red Sun' (Dali)
1992 Dali Records
Lyrics by B. Bjork
Music by Kyuss
Transcribed by Sean Hayter 2001

Tuning: Down 2 Whole Steps to C (C-F-Bb-Eb-G-C)
Notes: 'Green Machine' is track #2 on 'Blues For The Red Sun'

Main Riff:
C|------------------------------------------------------------------||
G|------------------------------------------------------------------||
Eb|-----------------------------9^-^9--------------------------------||
Bb|-----9-----9-----9-----9-----7^-^7-----9-----9-----9-----9--------||
F|-----7-----7-----7-----7-----0---------7-----7-----7-----7-----/--||
C|-0-0-0-0-0-0-0-0-0-0-0-0-0-0-------0-0-0-0-0-0-0-0-0-0-0-0-0-0-/--||

Main Riff: (with alternate ending)
C|------------------------------------------------------------------------||
G|------------------------------------------------------------------------||
Eb|-----------------------------9^-^9--------------------------------------||
Bb|-----9-----9-----9-----9-----7^-^7-----9-----9-----9-----9-----12-12-12-||
F|-----7-----7-----7-----7-----0---------7-----7-----7-----7-----10-10-10-||
C|-0-0-0-0-0-0-0-0-0-0-0-0-0-0-------0-0-0-0-0-0-0-0-0-0-0-0-0-0----------||

Chorus:
C|----------------------------------------------------------||
G|----------------------------------------------------------||
Eb|-------------------------------------------------12-12-12-||
Bb|-9--9--9-9-9-9--9-9--9-9-9-10-10--10--12--12-12--12-12-12-||
F|-7--7--7-7-7-7--7-7--7-7-7-10-10--10--12--12-12--10-10-10-||
C|-0--0--0-0-0-0--0-0--0-0-0--8--8---8--10--10-10-----------||

Fill Riff: (played before last verse)
C|--------------------------------------------------------------------------------------||
G|--------------------------------------------------------------------------------------||
Eb|-------------------------151412~--151412-151412-151412-151412-12~~--12^---12^-12^-12^-||
Bb|----------------------12--------------------------------------------------------------||
F|----10~----10-/12-/14-----------------------------------------------------------------||
C|-12-----12----------------------------------------------------------------------------||

Lyrics:
I've got a wall inside my head
It's got to set the soul free
I got a will inside my head
The will of understanding

I'm a loading, loading my war machine
I'm contributing to the system
The break down scheme
I'm shuttin' down, I'm shuttin' down
Your need for green
I'm here to gun it down, now gun it down

I see pretty flowers at my feet Cool breeze, clean air, hospitality
Pretty please, pretty please, pretty please
Get the hell away from me

I'm a loading, loading my war machine
I'm contributing to the system
The break down scheme
I'm shuttin' down, I'm shuttin' down
Your need for green
I'm here to gun it down, now gun it down
Uh

I've got a wall inside my head
It's got to set itself free
I got a will inside my head
The will of understanding

I'm a loading, loading my war machine
I'm contributing to the system
The break down scheme
I'm a shuttin' down, I'm shuttin' down
Your need for green, baby
I'm here to gun it down, now gun it down
Uhh, uh