X===============================PLEASE NOTE=====================================
X This tab belongs to its author and represents his interpretation of the song.
X You may only use this tab for private study, scholarship, or research.
X Do not change, deface, mutilate, or in any other way alter this tab.
X You must email the author first if you want to use this tab on your site.
X===============================================================================

Kyuss: Freedom Run
From the album: 'Blues For The Red Sun' (Dali)
1992 Dali Records
Lyrics by J. Homme
Music by Kyuss
Transcribed by Sean Hayter 2001

Tuning: Down 2 Whole Steps to C (C-F-Bb-Eb-G-C)
Notes: 'Freedom Run' is track #8 on 'Blues For The Red Sun'

Intro Solo:
C|-----------------------------------------------------------------|
G|-----------------------------------------------------------------|
Eb|-----------------------------------------------------------------|
Bb|-12^-^12~----12^-^12~----12^12-10-12^-^12-10---------------------|
F|---------------------------------------------12~----12\----------|
C|-----------------------------------------------------------------|

C|-----------------------------------------------------------------|
G|-----------------------------------------------------------------|
Eb|--------------------------h-----------------h-p-h-p-h------------|
Bb|-9^^-^9----9-9-9^-^9~----9^10\7------------0^7^0^7^0^7~----------|
F|-----------------------------------------------------------------|
C|-----------------------------------------------------------------|

C|------------------------------------------------------------------------------------------------------||
G|------------------------------------------------------------------------------------------------------||
Eb|------12-----------12---------12-----------12---------12-----------12---------12------12----12^14-12~-||
Bb|---14----14-----14----14---14----14-----14----14---14----14-----14----14---14----14------14-----------||
F|-0----------0-0----------0----------0-0----------0----------0-0----------0----------0-----------------||
C|------------------------------------------------------------------------------------------------------||

Main Riff:
C|-----------------------------------------------------------------|
G|-----------------------------------------------------------------|
Eb|---------12~--------------------------------12~------------------|
Bb|---------10~----------12\11-12\11-----------10~--------------12--|
F|-0-0-0-0----0---0-0-0-10\-9-10\-9---0-0-0-0----0---0-0-0-0-0-10--|
C|-----------------------------------------------------------------|

C|---------------------------------------------------------------------------||
G|---------------------------------------------------------------------------||
Eb|---------12~--------------------------12\11-----------12\11----------------||
Bb|---------10~----------12\11-12\11-----10\-9---12\11---10\-9---12\11--------||
F|-0-0-0-0----0---0-0-0-10\-9-10\-9---0-------0-10\-9-0-------0-10\-9-0-10\9-||
C|-----------------------------------------------------------------------8\7-||

Chorus Riff:
C|--------------------------------------||
G|--------------------------------------||
Eb|--------------------------------------||
Bb|-2-2-2-2-2-----/12---12-12-12-12---12-||
F|-0-0-0-0-0-----/10---10-10-10-10---10-||
C|--------------------------------------||

Solo: (starts out just like Intro Solo)
C|-----------------------------------------------------------------||
G|-----------------------------------------------------------------||
Eb|-----------------------------------------------------------------||
Bb|-12^-^12~----12^-^12~----12^12-10-12^-^12-10---------------------||
F|---------------------------------------------12~----12\----------||
C|-----------------------------------------------------------------||

Lyrics:
I break through, I steal for you
I need you, and there's nothin' you can do, yeah

Walking for miles, of desert sun
To grasp the chance, that I'll be gone
Be one with you, yeah

Freedom run, freedom run, freedom run

Well I break through, will I steal for you?
Well I need you, and there's nothin' you can do, yeah

No fun can last, well I hope you last
You're in my grasp, well I do one, yeah

Freedom run, freedom run, freedom run, freedom run