X===============================PLEASE NOTE=====================================
X This tab belongs to its author and represents his interpretation of the song.
X You may only use this tab for private study, scholarship, or research.
X Do not change, deface, mutilate, or in any other way alter this tab.
X You must email the author first if you want to use this tab on your site.
X===============================================================================

Music by Kyuss
Transcribed by Sean Hayter 2001

Tuning: Down 2 Whole Steps to C (C-F-Bb-Eb-G-C)
Notes: 'Flip The Phase' is track #9 on 'Muchas Gracias'

Intro/Coda:
C|----------------------------------||
G|----------------------------------||
Eb|----------------------------------||
Bb|----------------------------------||
F|-10101010101010101010101010101010-||
C|--8-8-8-8-8-8-8-8-8-8-8-8-8-8-8-8-||

Verse:
C|-----------------------------------------------||
G|-----------------------------------------------||
Eb|-----------------------------------------------||
Bb|------------------------------9-------8--------||
F|-10-101010101010101010101010107-99-9996-88-888-||
C|--8--8-8-8-8-8-8-8-8-8-8-8-8-8--77-777--66-666-||

Chorus:
C|-------------------------------------||
G|-------------------------------------||
Eb|-------------------------------------||
Bb|--------------9-99999----------------||
F|-10-10101010107-777779-9999999999999-||
C|--8--8-8-8-8-8-------7-7777777777777-||

Solo Backing: (Bass)
Eb|------------------------------9-------8--------||
Bb|-10-10101010101010101010101010--99-999--88-888-||
F|-----------------------------------------------||
C|-----------------------------------------------||

Solo:
C|-----0-----3-0-----2b-2r----2b-2r-----|
G|-0h2---------------------4~~------3~~-|
Eb|--------------------------------------|
Bb|--------------------------------------|
F|--------------------------------------|
C|--------------------------------------|

C|-----0--320320303232333p2p02b-2r----2b-2r----|
G|-0h2-----------------------------4~~------3~~|
Eb|---------------------------------------------|
Bb|---------------------------------------------|
F|---------------------------------------------|
C|---------------------------------------------|

C|-888~-88~-88~-88~-8~8~7~-7~---6~-6~---|-888~-88~-88~-88~-8~8~7~-7~---6~-6~---||
G|--------------------------------------|--------------------------------------||
Eb|--------------------------------------|--------------------------------------||
Bb|--------------------------------------|--------------------------------------||
F|--------------------------------------|--------------------------------------||
C|--------------------------------------|--------------------------------------||

Lyrics:
You lay it down and then I teach you a lesson
Lay it down, put it up in a second
I thought of somethin' that I could grip on
I'm burnin' out like leavin' the light on

It ain't fair, it ain't done, it ain't up to me
Well it ain't fair, it ain't done, it ain't up to me
Well it ain't fair, it ain't done, it ain't up to me
It ain't fair, it ain't done, it ain't up to me

You lay it down and then I teach you a lesson
Lay it down , put it up in a second
I thought of somethin' that I could grip on
I'm burnin' out like leavin' the light on

It ain't fair, it ain't done, it ain't up to me
Well it ain't fair, it ain't done, it ain't up to me
Well it ain't fair, it ain't done, it ain't up to me
It ain't fair, it ain't done, it ain't up to me