X===============================PLEASE NOTE=====================================
X This tab belongs to its author and represents his interpretation of the song.
X You may only use this tab for private study, scholarship, or research.
X Do not change, deface, mutilate, or in any other way alter this tab.
X You must email the author first if you want to use this tab on your site.
X===============================================================================

Kyuss: Fatso Forgotso
From the album: 'Muchas Gracias: The Best of Kyuss' (Elektra)
2000 Elektra Records
Lyrics by J. Homme
Music by Kyuss
Transcribed by Sean Hayter 2001

Tuning: Down 2 Whole Steps to C (C-F-Bb-Eb-G-C)
Notes: 'Fatso Forgotso' is track #10 on 'Muchas Gracias'

Intro/Chorus Riff:
C|----------------------------------------------------||
G|----------------------------------------------------||
Eb|----------------------------------------------------||
Bb|----------------6-6-6-6-6---------------------------||
F|-5------1-1-----4-4-4-4-4-3-3-3-3-3/5---------------||
C|-3--1-3-----3--1----------1-1-1-1-1/3---------------||

Verse Riff:
C|----------------------------------||
G|----------------------------------||
Eb|----------------------------------||
Bb|--6-6-6-6-6-----------------------||
F|--4-4-4-4-4--3-3-3-3--5-----------||
C|-------------1-1-1-1--3-----------||

Riff 2:
C|------------------------------------------||
G|------------------------------------------||
Eb|------------------------15-14----15-14-17-||
Bb|-----8-7---8-7-10-12-14-13-12-15-13-12-15-||
F|-5-7-6-5-8-6-5-8 -10-12-------13----------||
C|-3-5-----6--------------------------------||
(all these chords are played 8 times before moving on)

Solo

Extended Interlude:
C|-----------------------------||
G|-----------------------------||
Eb|-----5-5-5-5-5-5-7-5---------||
Bb|-----5-5-5-5-5-5-7-5---------||
F|-0-0-------------------------||
C|-----------------------------||

Lyrics:
It's hangin' above you
And it's over, over your head
A hover is only a handfull too
And I totally agree, it ain't got to be

It's hangin' above you
And it's over, over your head
A hover is only a handfull too
And I totally agree, it ain't got to be

Somethin' you been, lookin' at me like I been a young man
Everything would have been, you could take it, I like it
You could've have taken it home
Somethin' you been, lookin' at me like I been a young man
Everything would have been, you could take it, I like it
You could've have taken it home

It's over your head
It's over my head
It's over your head
It's over my head
It's over your head
It's over my head

It's over your head
It's over my head
It's over my head
It's over your head
It's over your head
It's over my head
It's over your head
It's over your head

It's over, it's over, it's over, it's over my fucken' head