X===============================PLEASE NOTE=====================================
X This tab belongs to its author and represents his interpretation of the song.
X You may only use this tab for private study, scholarship, or research.
X Do not change, deface, mutilate, or in any other way alter this tab.
X You must email the author first if you want to use this tab on your site.
X===============================================================================

In the Fade
tabbed by David Stern, with thanks to www.thefade.net for the tab in C which was retuned and modified a bit to make this one
Tuning - Standard

intro: (electric piano tabbed for guitar). there are a few variations on this that I can't quite catch, but this will work pretty well
---------------------|
-----------9---------|
----9--10--9--10-----|
---11--11-----11-----|
---------------------|
---------------------|

verse: (with delay) if no delay, just pick each note 3 times, with less force on the second two picks
-------------------|
-------12-----14---|
---13------14------|
-------------------|
-------------------|
-------------------|

pre chorus:
-----------------------------------------------|
-----------------------------------------------|
---/-6--6--6--6--6--6--6---9--9--9-------------|
---/-7--7--7--7--7--7--7---9--9--9--11-11-11---|
---/-7--7--7--7--7--7--7---7--7--7--11-11-11---|
---/-5--5--5--5--5--5--5-------------9--9--9---|

chorus: 1st, 2nd, 4th times
-----------------------------------------------------|
-----------------------------------------------------|
-----------9--11b-9-9------------9--9--9-------------|
----9h11-------------11p9--11----9--9--9--11-11-11---|
---------------------------------7--7--7--11-11-11---|
-------------------------------------------9--9--9---|

live till you die

chorus: 3rd time
-----------------------------------------------------|
-----------------------12----------------------------|
-----------9--b11-9-9----13-13br-9--9--9-------------|
----9h11-------------------------9--9--9--11-11-11---|
---------------------------------7--7--7--11-11-11---|
-------------------------------------------9--9--9---|

intro
Cracks in a ceiling, crooked pictures in the hall
Countin and breathin, Iím leaving here tomorrow

verse 1
They don't know, I'd never do you any good
Laughin is easy, I would if I could
pre chorus
Ainít gonna run
Just live till you die, wanna drown
With nowhere to fall into the arms of someone
Thereís nothing to save and I know
You live till you die

chorus
Live till you die, I know
verse
Loosing a feelin that I couldnít give away
Countin and breathin, disappearin in the fade
They don't know, I'd never do you any good
Stoppin and stayin, I would if I could

pre chorus
Ainít gonna run
Just live till you die, wanna drown
With nowhere to fall into the arms of someone
Thereís nothing to save I know
You live till you die

chorus
Live till you die, I know

outro:
---------------------------|
---------------------------|
---/-6--6--6--6--6--6--6---|
---/-7--7--7--7--7--7--7---|
---/-7--7--7--7--7--7--7---|
---/-5--5--5--5--5--5--5---|

end rhythm (Feel Good Hit of the Summer Reprise):
-----------------|
-----------------|
---7-7-7-7-7-7---|
---7-7-7-7-7-7---|
---5-5-5-5-5-5---|
-----------------|

end lead(Feel Good Hit of the Summer Reprise):
------------------|
---11----9---11---|
------------------|
------------------|
------------------|
------------------|
nicotine valium vicadan marijuana ecstacy and alcohol