X===============================PLEASE NOTE=====================================
X This tab belongs to its author and represents his interpretation of the song.
X You may only use this tab for private study, scholarship, or research.
X Do not change, deface, mutilate, or in any other way alter this tab.
X You must email the author first if you want to use this tab on your site.
X===============================================================================

In the Fade
tabbed by thefade.org

Tuning - C F Eb Bb G C

intro: (electric piano tabbed for guitar)
---------------------|
---------------------|
---------------------|
---17--19---22--19---|
---------------------|
---------------------|

verse: (with delay)
-------------------|
-------16-----18---|
---17------18------|
-------------------|
-------------------|
-------------------|

pre chorus:
-----------------------------------------------|
-----------------------------------------------|
---/10-10-10-10-10-10-10--13-13-13-------------|
---/11-11-11-11-11-11-11--13-13-13--15-15-15---|
---/11-11-11-11-11-11-11--11-11-11--15-15-15---|
---/-9--9--9--9--9--9--9------------13-13-13---|

chorus: 1st, 2nd, 4th times
--------------------------------------------------|
--------------------------------------------------|
----------13--17--13------------------------------|
---13h15-------------15p13-15-15-------------15---|
----------------------------------13--11--13------|
--------------------------------------------------|

live till you die

chorus: 3rd time
---------------------------------------------------|
----------------------16---------------------------|
----------13--17--13-----17--17hbr-----------------|
---13h15--------------------------------------15---|
-----------------------------------13--11--13------|
---------------------------------------------------|

intro
Cracks in a ceiling, crooked pictures in the hall
Countin and breathin, Iím leaving here tomorrow

verse 1
They don't know, I'd never do you any good
Laughin is easy, I would if I could
pre chorus
Ainít gonna run
Just live till you die, wanna drown
With nowhere to fall into the arms of someone
Thereís nothing to save and I know
You live till you die

chorus
Live till you die, I know
verse
Loosing a feelin that I couldnít give away
Countin and breathin, disappearin in the fade
They don't know, I'd never do you any good
Stoppin and stayin, I would if I could

pre chorus
Ainít gonna run
Just live till you die, wanna drown
With nowhere to fall into the arms of someone
Thereís nothing to save I know
You live till you die

chorus
Live till you die, I know

outro:
--------------------------|
--------------------------|
---10-10-10-10-10-10-10---|
---11-11-11-11-11-11-11---|
---11-11-11-11-11-11-11---|
----9--9--9--9--9--9--9---|

end rhythm:
-----------------|
-----------------|
---7-7-7-7-7-7---|
---7-7-7-7-7-7---|
---5-5-5-5-5-5---|
-----------------|

end lead:
------------------|
---15---13---15---|
------------------|
------------------|
------------------|
------------------|
nicotine valium vicadan marijuana ecstacy and alcohol