X===============================PLEASE NOTE=====================================
X This tab belongs to its author and represents his interpretation of the song.
X You may only use this tab for private study, scholarship, or research.
X Do not change, deface, mutilate, or in any other way alter this tab.
X You must email the author first if you want to use this tab on your site.
X===============================================================================

If Only Everything
tabbed by thefade.org

Tuning - C F Bb Eb G C

riff 1:
--------------------------------------------|
--------------------------------------------|
---10/11-11-11-11-8/10--6/8-8-8-6-6-6/8-8---|
---10/11-11-11-11-8/10--6/8-8-8-6-6-6/8-8---|
----8/9--9--9--9--6/8---4/6-6-6-4-4-4/6-6---|
--------------------------------------------|

chorus riff:
--------------------------------|
--------------------------------|
---8-8--8-8-11-11-11-11-11-11---|
---8-8--8-8-11-11-11-11-11-11---|
---6-6--6-6--9--9--9--9--9--9---|
--------------------------------|

riff 1:
If it gets you down, well then I want it
If it gets you up, well I donít want it
Lets you down, so broken hearted
If it gets you down, well then I want it

chorus riff:
If only weíre nothing at all

solo 1: 2x
--------------------------------------------------------------------|
--------------------------------------------------------------------|
--------------------------------------------------------------------|
--------------------------------------------------------------------|
---------11-15b--15br----11-11b-11p9----9-8h9p8-6h8p6-6-6--4--6-6---|
---11h13--------------11-------------11-----------------------------|

----------------------------------------------------------------------|
----------------------------------------------------------------------|
--------------------------------------------------------18-20-20------|
------16-18----18p16----16-18p16----16--20-20-20--18-20----------18---|
---18-------18-------18----------18-----------------------------------|
----------------------------------------------------------------------|

-------------------------------------------------------------------|
-------------------------------------------------------------------|
---20p18-----------------------------------------------------------|
---------20p18-20p18-20p18-16-18--18b----16-16-18p16-20-18-16h18---|
--------------------------------------18---------------------------|
-------------------------------------------------------------------|

-----------------------------------------------------------|
-----------------------------------------------------------|
------------20-20-18--20-20-18--20-18-20p18----18--20p18---|
---20-18-16---------------------------------18-------------|
-----------------------------------------------------------|
-----------------------------------------------------------|

-----------------------------------------------------------------|
-----------------------------------------------------------------|
---22b-22b-22b-22b-22p20-20-20-20-22p0-22p0-22b-22b-22b-22b-20---|
-----------------------------------------------------------------|
-----------------------------------------------------------------|
-----------------------------------------------------------------|

riff 1:
So blow my mind, itís just so crazy
Those long, long days just make it eighty
So roll the wheel, and there it goes
And where it stops you never know
If it gets you down then just donít blame me

chorus riff:
If only weíre nothing at all

solo 2:
--------------------------------------------------------------------------|
--------------------------------------------------------------------------|
---13-13-13-13--13-13-13-13--13-13-13-13--13-11-11-13p11------------------|
---------------------------------------------------------13-11-11h13-13---|
--------------------------------------------------------------------------|
--------------------------------------------------------------------------|

---------------------------------------------------------------------------|
---------------------------------------------------------------------------|
---13-13-13-13--13-13-13-13--13-13-13-13-13-14-13--11-13p11----------------|
------------------------------------------------------------13--11h13-11---|
---------------------------------------------------------------------------|
---------------------------------------------------------------------------|

-----------|
-----------|
-----------|
---13-13---|
-----------|
-----------|

riff 1 until the end