X===============================PLEASE NOTE=====================================
X This tab belongs to its author and represents his interpretation of the song.
X You may only use this tab for private study, scholarship, or research.
X Do not change, deface, mutilate, or in any other way alter this tab.
X You must email the author first if you want to use this tab on your site.
X===============================================================================

Kyuss: Demon Cleaner
From the album: 'Welcome To Sky Valley' (Elektra)
1995 Elektra Records
Lyrics by J. Homme
Music by Kyuss
Transcribed by Sean Hayter 2001

Tuning: Down 2 Whole Steps to C (C-F-Bb-Eb-G-C)
Notes: 'Demon Cleaner' is track #2 Pt. 3 on 'Welcome To Sky Valley'

Intro/Main Riff:
C|---------------------------------------------|
G|---------------------------------------------|
Eb|------12--10---12--10--12--14^---12--14------| (there are two endings
Bb|-----------------------------------------12--| at different parts of
F|---------------------------------------------| the song)
C|--10-----------------------------------------|

Ending A:
C|-----------------------------------||
G|-----------------------------------||
Eb|------12--10---12--10--12--14^^^^--||
Bb-----------------------------------||
F|-----------------------------------||
C|--10-------------------------------||

Ending B:
C|---------------------------------------------------------13^^^--||
G|---------------------------------------------------13-15--------||
Eb|------12--10---12--10--12--14^---12--14------12-14--------------||
Bb|-----------------------------------------12---------------------||
F|----------------------------------------------------------------||
C|--10------------------------------------------------------------||

every 4th time, skip 2nd
Verse: part & play this:
C|---------------------------------|----------------------|
G|---------------------------------|----------------------|
Eb|---------------------------------|----------------------|
Bb|---------------------------------|-----------------10---|
F|--12---12--10h12---12---12-------|--12---12--10h12------|
C|--10---10----------10---10--13---|--10---10-------------|

'Yeah' Part One: (play each section twice)
C|---------------------------|---------------------||
G|---------------------------|---------------------||
Eb|------12--10---12--10--12--|------10--9---10--9--||
Bb|---------------------------|---------------------||
F|---------------------------|---------------------||
C|--10-----------------------|--10-----------------||

Bridge:
C|-----------------------------------------|
G|-----------------------------------------|
Eb|-----------------------------------------|
Bb|--12^--12^--12^--12^--12^--12^--12^--10--|
F|-----------------------------------------|
C|-----------------------------------------|

C|----------------------------------|
G|----------------------------------|
Eb|----------------------------------|
Bb|--12---10---12P10--------10---12--|
F|--------------------13------------|
C|----------------------------------|

Solo Intro:
C|-----------------------||----------10^^^^--|
G|--10^-10-10^-10-10^-8--||--10--13----------|
Eb|-----------------------||------------------|
Bb|-----------------------||------------------|
F|-----------------------||------------------|
C|-----------------------||------------------|

Solo:
C|--10p8-----|--10^-10^-10^-10^-10P8----8----------------------|
G|-------10--|-----------------------10------------------------|
Eb|-----------|----------------------------10^-10^-10^-10^-10^--|
Bb|-----------|-------------------------------------------------|
F|-----------|-------------------------------------------------|
C|-----------|-------------------------------------------------|

C|-------------------------------------------------|
G|----------8-10h11p10-8------------------------8--|
Eb|--10p7h10--------------10-9-7-7-9-7-9-10-9-10----|
Bb|-------------------------------------------------|
F|-------------------------------------------------|
C|-------------------------------------------------|

C|------------------------|-----------------------------------------||
G|--10^-8---------8----8--|--10^-8-----------8-------------------8--||
Eb|--------10P7H10---10----|---------10P7H10----10-7----7----7-10----||
Bb|------------------------|-------------------------10---10---------||
F|------------------------|-----------------------------------------||
C|------------------------|-----------------------------------------||

Lyrics:
I've got the demons in me
I've got to flush them all away
I feel the demons rage
I must clean them all away

Yeah (yeah)

Except in see more
Carpets in the way
The magic cleaner will
Shine his smile over me

Yeah (yeah)

I am the demon
Cleaner to save the day
I get the back one
Important they'll always stay

Yeah (yeah)

If only one thing that you'll know
Impostors from the show
They'll try to trick you into
Normal treatment
Oh don't you listen to them say
Shush them all away
I am the demon cleaner
Madman saver
I am the the freedom bleeder
Standing naked here to say
I'm the only way