X===============================PLEASE NOTE=====================================
X This tab belongs to its author and represents his interpretation of the song.
X You may only use this tab for private study, scholarship, or research.
X Do not change, deface, mutilate, or in any other way alter this tab.
X You must email the author first if you want to use this tab on your site.
X===============================================================================

Kyuss: Caterpillar March
From the album: 'Blues For The Red Sun' (Dali)
1992 Dali Records
Music by Kyuss
Transcribed by Sean Hayter 2001

Tuning: Down 2 Whole Steps to C (C-F-Bb-Eb-G-C)
Notes: 'Caterpillar March' is track #7 on 'Blues For The Red Sun'

Intro Riff:
C|---------------------------------------||
G|---------------------------------------||
Eb|---------------------------------------||
Bb|---5-7---5-7---5-7---5-7---5-7-5-0-----||
F|-0-----0-----0-----0-----0---------3---||
C|-------------------------------------3-||

Main Riff:
C|--------------------------------||
G|--------------------------------||
Eb|-9--9-9-9-9--9--9--9----h--p----||
Bb|-7--7-7-7-7--7--7--7--10^12^10--||
F|-0--0-0-0-0--0--0--0--10^12^10--||
C|--------------------------------||

Fill Riff:
C|--------------------------------||
G|--------------------------------||
Eb|--------------------------------||
Bb|-12^^------12^^-^^12------12^^--||
F|--------------------------------||
C|--------------------------------||

Lyrics:
N/A - Instrumental