X===============================PLEASE NOTE=====================================
X This tab belongs to its author and represents his interpretation of the song.
X You may only use this tab for private study, scholarship, or research.
X Do not change, deface, mutilate, or in any other way alter this tab.
X You must email the author first if you want to use this tab on your site.
X===============================================================================

The Bronze
tabbed by thefade.org

Tuning - C F Eb Bb G C

intro (w/tremelo):
---------------------------------------------------------------------------|
---------7---7---------------6---6--4/6-7-9---------7-----7--------6---6---|
-------7-------7-----------6----------------------7--------------6---------|
-----7-----------7-------6----------------------7--------------6-----------|
---5---------------5---4----------------------5--------5-----4-------------|
---------------------------------------------------------------------------|

riff 1 (right channel):
---------------------------------------|
---------------------------------------|
---7-7-7-----6-6-6-----7-7-7---9-9-6---|
---7-7-7-----6-6-6-----7-7-7---9-9-6---|
---5-5-5-----4-4-4-----5-5-5---7-7-4---|
---------------------------------------|

riff 2 (left channel):
-------5-----5-----4-----4-----5-----5-----4-----4-------|
-------7-----7-----6-----6-----7-----7-----6-------6-----|
-------7-----7-----6-----6-----7-----7-----6---------6---|
-------7-----7-----6-----6-----7-----7-----6-------------|
-------5-----5-----4-----4-----5-----5-----4-------------|
---0-0---0-0---0-0---0-0---0-0---0-0---0-0------0--------|

lead 1:
-----------------|
---20----19------|
------19----18---|
-----------------|
-----------------|
-----------------|

intro solo (w/wah):
-------------------------------------------------------------------------------|
-------------------------------------------------------------------------------|
--/11-11-11-11-11-11-11-13-13-10-10-10-10-8-10-11-10--11-11-11-11-11-11-11-11--|
-------------------------------------------------------------------------------|
-------------------------------------------------------------------------------|
-------------------------------------------------------------------------------|

-------------------------------------|
-------------------------------------|
---13-13-14-14-10-10-10-10-8-10-13---|
-------------------------------------|
-------------------------------------|
-------------------------------------|

riffs 1 and 2 w/lead 1:
I been waiting
Waiting under things that rise in the morning
I been holding
Holding back so long
You can own it, take it off my hands, do me a favor
Nothin wasted
Just fingerfucked and busted up all at once

riff 2 under solos

solo 1 (w/wah):
---------------------------------------------------------------------------|
---------------------------------------------------------------------------|
---11/13-13/14-14\13-16\14-14\13-13\11-18\16-16\14-14\13--13-13-13-13\11---|
---------------------------------------------------------------------------|
---------------------------------------------------------------------------|
---------------------------------------------------------------------------|

--------------------------------------------------------------------------------|
--------------------------------------------------------------------------------|
--11-11-11-11-11-11-11-11-11/13-13\11--10-10-10-10-10-10-8-10-10--13-13-13b-11--|
--------------------------------------------------------------------------------|
--------------------------------------------------------------------------------|
--------------------------------------------------------------------------------|

------------------------------------------------------------------------------|
------------------------------------------------------------------------------|
--10h11p10-8-11--13-13-13b-11-13-16--16-18-18-18p16-16-16-18p16-16-18p16-16---|
------------------------------------------------------------------------------|
------------------------------------------------------------------------------|
------------------------------------------------------------------------------|

----------------------------------------------------------------------------|
----------------------------------------------------------------------------|
---18p16-18p16-18p16-18p16-18p16-18p16-18p16--5-5-5-5-5-5-5-5-5-5-5-5-5-5---|
----------------------------------------5-5-5-5-5-5-5-5-5-5-5-5-5-5---------|
----------------------------------------3-3-3-3-3-3-3-3-3-3-3-3-3-3---------|
----------------------------------------------------------------------------|

solo 2 (w/wah): --------------------------------------------------------------------------------|
--------------------------------------------------------------------------------|
-------------------------------------------6-6-------------------4-6-6-6-7-7-6--|
-----0-2-4-5-4-0--6-4-0-6-4-0--4-7-6-6-6-4-----6---4-6-6b--4-6-6----------------|
---3----------------------------------------------------------------------------|
--------------------------------------------------------------------------------|

--------------------|
---5-5-7-7b-5-5-----|
----------------7---|
--------------------|
--------------------|
--------------------|

play these notes in some sort of pattern (2:02 - 2:14):
----------------|
----------------|
---13-11-9------|
-----------11---|
----------------|
----------------|

end:
--------------------|
---//////18-19-20---|
--------------------|
--------------------|
--------------------|
--------------------|

riffs 1 and 2:
Iím so lost out on the highway
With no direction left to go
Everyday sit up and wonder
Where it was I started from

fill:
---------------------------|
---------------------------|
---5-5-5-5-5-5-5-5-5-5-5---|
---5-5-5-5-5-5-5-5-5-5-5---|
---3-3-3-3-3-3-3-3-3-3-3---|
---------------------------|
pm -------------
riff 3:
----------------------------------------------------------------------------|
----------------------------------------------------------------------------|
-----------11---------------------13----------------------------------------|
--11-11-11-11--11-11-11--13-13-13-13-13-13-13--12-12-12-12-12-12-12-12-12---|
--11-11-11--9--11-11-11--13-13-13-11-13-13-13--12-12-12-12-12-12-12-12-12---|
---9--9--9------9--9--9--11-11-11----11-11-11--10-10-10-10-10-10-10-10-10---|

lead 2:
--------------|
--------------|
---------18---|
---17p16------|
--------------|
--------------|

lead 3:
---------------|
---------------|
---18b---------|
-------17-16---|
---------------|
---------------|

lead 4:
-----------------------------------------|
-----------------------------------------|
------18----18----18----18----18----18---|
---16----16----16----16----16----16------|
-----------------------------------------|
-----------------------------------------|

lead 5:
-----------------|
-----------------|
---16-18-19-18---|
-----------------|
-----------------|
-----------------|

riff 3:
The more youíve found the less youíve been around

lead 2

The more youíve found the less youíve been around

lead 3

The more youíve found the less youíve been around

lead 4

The more youíve found the less youíve been around

lead 5

riffs 2 and 3 until end

end:
-------------------------|
-------------------------|
---7--7--7--7--7--7--6---|
---7--7--7--7--7--7--6---|
---5--5--5--5--5--5--4---|
-------------------------|