X===============================PLEASE NOTE=====================================
X This tab belongs to its author and represents his interpretation of the song.
X You may only use this tab for private study, scholarship, or research.
X Do not change, deface, mutilate, or in any other way alter this tab.
X You must email the author first if you want to use this tab on your site.
X===============================================================================

Kyuss: Thee Ol' Boozeroony
From the album: '...And The Circus Leaves Town' (Elektra)
1995 Elektra Records
Music by Kyuss
Transcribed by Sean Hayter 2001

Tuning: Down 2 Whole Steps to C (C-F-Bb-Eb-G-C)
Notes: 'Thee Ol' Boozeroony' is track #3 on '...And The Circus Leaves Town'

Intro:
C|--0-0-0-0--7---7----7---7----||
G|------------9---9----9---9---||
Eb|-------------9---10---9---10-||
Bb|-----------------------------||
F|-----------------------------||
C|-0-0-0-0---------------------||

Intro Part 2/Chorus:
C|-----------------------||
G|-----------------------||
Eb|--7/9999--2--5/7777--2-||
Bb|--7/9999--2--5/7777--2-||
F|--5/7777--1--3/5555--1-||
C|-----------------------||

Verse:
C|-----4-6-4-0-4-4--------4-6-4-0-4-4--------4-6-4-6-6b8--------4--|
G|--3h5------------6---3h5------------6---3h5------------6---3h5---|
Eb|-----------------------------------------------------------------|
Bb|-----------------------------------------------------------------|
F|-----------------------------------------------------------------|
C|-----------------------------------------------------------------|

C|--------||
G|--------||
Eb|--------||
Bb|-x3--x6-||
F|-x3--x6-||
C|-x1--x4-||

Verse Part 2:
C|-10/12-10----10---12*-10/12-10----10---12*--10/12-10----10---12*-10/12-10----10---12*--||
G|----------12------------------12----------------------12------------------12-----------||
Eb|---------------------------------------------------------------------------------------||
Bb|---------------------------------------------------------------------------------------||
F|---------------------------------------------------------------------------------------||
C|---------------------------------------------------------------------------------------||

Lyrics:
"You gotta hear it, man."
"Don't do this to me!"

N/A - Instrumental