X===============================PLEASE NOTE=====================================
X This tab belongs to its author and represents his interpretation of the song.
X You may only use this tab for private study, scholarship, or research.
X Do not change, deface, mutilate, or in any other way alter this tab.
X You must email the author first if you want to use this tab on your site.
X===============================================================================

Kyuss: Big Bikes
From the album: 'Wretch' (Dali)
1991 Dali Records
Lyrics by B. Bjork
Music by Kyuss
Tabbed by Sean Hayter 2001

Tuning: Down 2 Whole Steps to C (C-F-Bb-Eb-G-C)
Notes: 'Big Bikes' is track #10 on 'Wretch'

Intro: x8
C|---------------------------------|--------------------||
G|---------------------------------|--------------------||
Eb|---------------------------------|----10-9-8----------||
Bb|---------------------------------|--------------------||
F|-8-6-8--8-6-8--8-6-8-8--6-8-8~~~-|-8----------8-------||
C|---------------------------------|--------------7-6-5-||

Verse:
C|-------------------------||
G|-------------------------||
Eb|-------------------------||
Bb|-3-3-3-3-3-3-3-3/8-8-7/3-||
F|-3-3-3-3-3-3-3-3/8-8-7/3-||
C|-1-1-1-1-1-1-1-1/6-6-5/1-||

Chorus:
C|----------------------------|-------------------------||
G|----------------------------|-------------------------||
Eb|----------------------------|-------------------------||
Bb|-6-6-6-6-6-6-6--------------|-3-3-3-3-3-3-3-3/8-8-7/3-||
F|-6-6-6-6-6-6-6--------------|-3-3-3-3-3-3-3-3/8-8-7/3-||
C|-4-4-4-4-4-4-4--6^6^6^6^6^6-|-1-1-1-1-1-1-1-1/6-6-5/1-||

Solo: Penatonics around the eight fret of the F string.

Bridge: x4
C|--------------------||
G|--------------------||
Eb|--------------------||
Bb|----10-9-8----------||
F|-8----------8-------||
C|--------------7-6-5-||

Lyrics:
Comes a ridin'
Well burnin' down the street
Here comes a fucken boy
Feel the New York heat

'Cause I want some pussy yeah, yeah, yeah, yeah, yeah
From a bad bitch on a big bike, yeah
Big bike, yeah

She is feelin' nasty
She is feelin' nice tonight
Hey baby I wanna cool you down
I need to make it tonight

'Cause I want some pussy yeah, yeah, yeah, yeah, yeah
From a bad bitch on a big bike, yeah
A big bike, yeah

If she comes a ridin'
Burnin' down the street
Here comes a fucken boy
Feel the New York heat

I want some pussy yeah, yeah, yeah, yeah, yeah
From a bad bitch on a big bike
Big bike, big bike, pooftah

Don't get me wild
Don't you
Let you, let you yeah
Yeah