X===============================PLEASE NOTE=====================================
X This tab belongs to its author and represents his interpretation of the song.
X You may only use this tab for private study, scholarship, or research.
X Do not change, deface, mutilate, or in any other way alter this tab.
X You must email the author first if you want to use this tab on your site.
X===============================================================================

You Can't Quit Me Baby
tabbed by thefade.org

Tuning - C F Bb Eb G C

verse riff 1 (strum and/or randomly pick notes):
------------------------------------------------|
------------------------------------------------|
------------------------------------------------|
---12-12-12-12-12-12-12--12-12-12-12-12-12-12---|
------------------------------------------------|
---15-15-15-15-15-15-15--10-10-10-10-10-10-10---|

verse riff 2:
------------------------------------|
------------------------------------|
------------------------------------|
---15-15-15-15-15--14-14-14-14-14---|
------------------------------------|
---17-17-17-17-17--16-16-16-16-16---|

bass intro

verse riff 1:
Itís a mistake, but who knows
Followed you home, crawled in your window

verse riff 2:
This life is a trip when youíre psycho in love

verse riff 1:
And I know

Followed your friends, you were not there
Slashed and I cut, I bled in the sink
Heard what you said and youíre laughing baby
Slashed and I cut, and I do it for you

verse riff 2:
I want you to notice when Iím not around

verse riff 1:
Wherever you are

slide lead:
-------------------|
-------------------|
---9/12-----12\9---|
-------------------|
-------------------|
-------------------|

riff 2:
---------------------------------------------------------------12-12---|
---14b----------14--14b---------14--14b---------14--14b----------------|
-------13b--------------13b-------------13b-------------13b------------|
-----------11b--------------11b-------------11b-------------11---------|
-----------------------------------------------------------------------|
-----------------------------------------------------------------------|

-----------------------------------------------------------------|
---14b---------14--14b---------14--14b---------14-14b-14brbrbr---|
-------13b-------------13b-------------13b-----------------------|
-----------11b-------------11b-------------11b-------------------|
-----------------------------------------------------------------|
-----------------------------------------------------------------|

chorus: guitar 1
-----------------------------------------------------------------------|
-----------------------------------------------------------------------|
---9-9-9-9-9-9-9-8-8-8-8-8-8-8-8-14-14-14-14-14-14-14-14-14-14-14-16---|
-----------------------------------------------------------------------|
---7-7-7-7-7-7-7-6-6-6-6-6-6-6-6-12-12-12-12-12-12-12-12-12-12-12-14---|
-----------------------------------------------------------------------|

guitar 2:
------------------------------------------------------------------------------|
------------------------------------------------------------------------------|
---9-9-9-9---9-9-9-11-11-11-11------11-11--14-14-14-14-------14-14-14-14-16---|
------------------------------------------------------------------------------|
---7-7-7-7-5h7-7-7--9--9--9--9-7h9---9--9--12-12-12-12-10h12-12-12-12-12-14---|
------------------------------------------------------------------------------|

chorus:
Youíre solid gold
Iíll see you in hell

verse riff 1 4x

verse riff 1 w/ slide lead 4x

verse riff 1 under riff 2 and solo

riff 2

outro solo:
------------------------------------------------------------------|
---16-17-19--16-17-19--16-19-16-16-19-16--17-19-17-19--17-19-17---|
------------------------------------------------------------------|
------------------------------------------------------------------|
------------------------------------------------------------------|
------------------------------------------------------------------|

-------------------------------------------------------------------------|
---19-17-19-17-19-17--16-19-16-19-16-19-16-19-16-19--17-19-16-19-17-19---|
-------------------------------------------------------------------------|
-------------------------------------------------------------------------|
-------------------------------------------------------------------------|
-------------------------------------------------------------------------|

----------------------------------------------------------------------|
---16-19-17-19--16-16-14-13-14-16p14p13-------------13-16p14p13p------|
----------------------------------------14-13-14-13--------------14---|
----------------------------------------------------------------------|
----------------------------------------------------------------------|
----------------------------------------------------------------------|

-----------------------------13-14-16-14-13---|
----------------13-14--13-14------------------|
---12brbrbrbrbr-------------------------------|
----------------------------------------------|
----------------------------------------------|
----------------------------------------------|

riff 2, then random notes until the end