X===============================PLEASE NOTE=====================================
X This tab belongs to its author and represents his interpretation of the song.
X You may only use this tab for private study, scholarship, or research.
X Do not change, deface, mutilate, or in any other way alter this tab.
X You must email the author first if you want to use this tab on your site.
X===============================================================================

Auto Pilot
tabbed by Jeroen Duller
Tuning - Standard!

intro/verse riff:
--------------------------------------------|
--------------------------------------------|
--------------------------------------------|
-7-9-9-9--7-9-9-9---9--9--9--9---8--8--8--8-|
-7-9-9-9--7-9-9-9---9--9--9--9---8--8--8--8-|
-5-7-7-7--5-7-7-7--11-11-11-11--10-10-10-10-|

intro solo:
------------------------------------------------------------------------|
-----12------12---12hb--12hb--12br-12h10p12-----------------------------|
--10------10---------------------------------11-------------------------|
-------------------------------------------------9---------12-14--14hb--|
-----------------------------------------------------12h14--------------|
------------------------------------------------------------------------|

verse:
Saw you down there on the marble slab
The best trip that Iíve ever had
High up in a jet plane, pass it around
My drinks on empty, need another round

chorus rhythm:
-------------------------------------------------------|
-------------------------------------------------------|
-------------------------------------------------------|
---9-9-9-9-9-9-9-9--5-5-5-5-5-5-5-5--2-2-2-2-2-2-2-2---|
---9-9-9-9-9-9-9-9--5-5-5-5-5-5-5-5--2-2-2-2-2-2-2-2---|
---7-7-7-7-7-7-7-7--3-3-3-3-3-3-3-3--0-0-0-0-0-0-0-0---|

chorus lead:
---------------------------------------------|
---------------------------------------------|
---------------------------------------------|
---14hbr--14hbr--12h14---------------12------|
-----------------------14--14--12h14----14---|
---------------------------------------------|

chorus:
I wanna fly, wanna ride with you
Is this the best that you can do?
I wanna fly, wanna ride with you
High up in a jet plane with you

fill:
----------|
----------|
---16br---|
----------|
----------|
----------|

verse:
When we arrive in the middle of nowhere
Donít act like you know, I been here so many times
I never seen you before

fill

But now that I have, I donít wanna see you no more

fill 2x

High up in a jet plane with you
High up in a jet plane with you

chorus 2 lead:
-------------------------------------------|
-------------------------------------------|
-------------------------------------------|
---14br--14br--12h14---------------12------|
---------------------14--14--12h14----14---|
-------------------------------------------|

----------------------------------------|
----------------------------------------|
----------------------------------------|
---14br--14br--12h14---------------12---|
---------------------14--14--12h14------|
----------------------------------------|

--------------------------------------------|
--------------------------------------------|
---16br--16br----14h16--------------16------|
----------------------16--16--14h16----14---|
--------------------------------------------|
--------------------------------------------|

--------------------------------------------|
--------------------------------------------|
--------------------------------------------|
---14br--14br--12h14---------------12-------|
---------------------14--14--12h14----14----|
--------------------------------------------|

chorus:
I wanna fly, wanna ride with you
Is this the best that you can do?
I wanna fly, wanna ride with you
High up in a jet plane with you

bridge:
--8--8--3-3--5-5--0-0-|--8--8--3-3--5-5-0-0-|
--8--8--3-3--5-5--0-0-|--8--8--3-3--5-5-0-0-|
--9--9--4-4--6-6--1-1-|--9--9--4-4--6-6-6-6-|
-10-10--5-5--7-7--2-2-|-10-10--5-5--7-7-7-7-|
-10-10--5-5--7-7--2-2-|-10-10--5-5--7-7-7-7-|
--8--8--3-3--5-5--0-0-|--8--8--3-3--5-5-0-0-|

bridge:
Ah-ah, auto pilot no control
Ah-ah, ahh
Ah-ah, auto pilot no control
Ah-ah, ahh

verse:
High up in a jet plane with you

fill

High up in a jet plane with you

fill

chorus:
I wanna fly, wanna ride with you
Is this the best that you can do?
I wanna fly, wanna ride with you
High up in a jet plane with you

chorus lead 4th time:
-----------------------------------|
-----------------------------------|
------------------16--16-14-16br---|
---14br--14br--12------------------|
-----------------------------------|
-----------------------------------|

outro lead:
-------------------------------------------|
-------------------------------------------|
---16br--160br--14h16---------------14------|
---------------------16--16--14h16----16---|
-------------------------------------------|
-------------------------------------------|

----------------------------------|
--------------17b-17-17-15h17-----|
--16br--16br------------------16--|
----------------------------------|
----------------------------------|
----------------------------------|

-----------------------------------------|
--17br--17br--15h17---------------15-----|
--------------------16--16--14h16----16--|
-----------------------------------------|
-----------------------------------------|
-----------------------------------------|

chorus:
I wanna fly, wanna ride with you
Is this the best that you can do?
I wanna fly, wanna ride with you
High up in a jet plane with you