X===============================PLEASE NOTE=====================================
X This tab belongs to its author and represents his interpretation of the song.
X You may only use this tab for private study, scholarship, or research.
X Do not change, deface, mutilate, or in any other way alter this tab.
X You must email the author first if you want to use this tab on your site.
X===============================================================================

Auto Pilot
tabbed by Bert Walraet

Tuning - C F Bb Eb G C

(for standard tuning: just play everything 4 frets lower, off course)

intro/verse riff:
---------11--------------------------------------------------------------|
---------11--------------------------------------------------------------|
-------------------------------------------------------------------------|
-------------------------------------------------------------------------|
-11h13-13---13-11h13-13-11-11-11-13-13-13-11h13-13-11-11-11-11-11-11-11--|
-11----11---11-11----11-11-11-11-11-14-14-14----14-14-13-13-11-11-11-13--|

Note: I know it looks a bit strange, but itís not so hard to play: just keep your forefinger on the 11th fret, and play the rest with your middle and ring finger. Just try it, it really sounds like the real thing!!

intro solo:
------------------------------------------------------------------------|
-----16------16---16hb--16hb--16br-14h16p14-----------------------------|
--14------14---------------------------------15-------------------------|
-------------------------------------------------13--------16-18--18hb--|
-----------------------------------------------------16h18--------------|
------------------------------------------------------------------------|

verse:
Saw you down there on the marble slab
The best trip that Iíve ever had
High up in a jet plane, pass it around
My drinks on empty, need another round

chorus rhythm:
---------------------------|
---------------------------|
--8-8-8-8------------------|
--8-8-8-8-9-9-9-9-6-6-6-6--|
--6-6-6-6-9-9-9-9-6-6-6-6--|
----------7-7-7-7-4-4-4-4--|

chorus lead:
----------------------------------------|
---9hbró--9hbr---7h9-------------7------|
----------------------8--8ó-6h8-----8---|
----------------------------------------|
----------------------------------------|
----------------------------------------|

chorus:
I wanna fly, wanna ride with you
Is this the best that you can do?
I wanna fly, wanna ride with you
High up in a jet plane with you

fill:

---11br---|
----------|
----------|
----------|
----------|
----------|

verse:
When we arrive in the middle of nowhere
Donít act like you know, I been here so many times
I never seen you before

fill

But now that I have, I donít wanna see you no more

fill 2x

High up in a jet plane with you
High up in a jet plane with you

chorus 2 lead:
----------------------------------------|
---9hbró--9hbr---7h9-------------7------|
----------------------8--8ó-6h8-----8---|
----------------------------------------|
----------------------------------------|
----------------------------------------|

--------------------------------------|
---9hbró--9hbr---7h9-------------7----|
----------------------8--8ó-6h8-------|
--------------------------------------|
--------------------------------------|
--------------------------------------|

---11bró-11br---9h11---------------9-------|
----------------------11--11ó9h11-----11---|
-------------------------------------------|
-------------------------------------------|
-------------------------------------------|
-------------------------------------------|

----------------------------------------|
---9hbró--9hbr---7h9-------------7------|
----------------------8--8ó-6h8-----8---|
----------------------------------------|
----------------------------------------|
----------------------------------------|

chorus:
I wanna fly, wanna ride with you
Is this the best that you can do?
I wanna fly, wanna ride with you
High up in a jet plane with you

bridge:
---------------------------------------|-----------------------------|
---------------------------------------|-----------------------------|
--9-9-9-9-----------6-6-6-6------------|--9-9-9-9-----------6-6-6-6--|
--9-9-9-9--9-9-9-9ó-6-6-6-6--6-6-6-6---|--9-9-9-9--9-9-9-9--6-6-6-6--|
--7-7-7-7--9-9-9-9ó-4-4-4-4--6-6-6-6---|--7-7-7-7--9-9-9-9ó-4-4-4-4--|
-----------7-7-7-7-----------4-4-4-4---|-----------7-7-7-7-----------|

bridge:
Ah-ah, auto pilot no control
Ah-ah, ahh
Ah-ah, auto pilot no control
Ah-ah, ahh

verse:
High up in a jet plane with you

fill

High up in a jet plane with you

fill

chorus:
I wanna fly, wanna ride with you
Is this the best that you can do?
I wanna fly, wanna ride with you
High up in a jet plane with you

chorus lead 4th time:
---------------11--11--9ó11br-----|
---9bró9br--7---------------------|
----------------------------------|
----------------------------------|
----------------------------------|
----------------------------------|

outro lead:
---11bró-11bró-9h11---------------9--------|
---------------------11--11ó-9h11----11----|
-------------------------------------------|
-------------------------------------------|
-------------------------------------------|
-------------------------------------------|

---11bró11bró--16br-16-16ó-14h16-------|
----------------------------------16---|
---------------------------------------|
---------------------------------------|
---------------------------------------|
---------------------------------------|

--16bró-16bró-16h14---------------14-----|
--------------------16--16ó-14h16----16--|
-----------------------------------------|
-----------------------------------------|
-----------------------------------------|
-----------------------------------------|

--16bró-16bró-16h14-------|
---------------------16---|
--------------------------|
--------------------------|
--------------------------|
--------------------------|

chorus:
I wanna fly, wanna ride with you
Is this the best that you can do?
I wanna fly, wanna ride with you
High up in a jet plane with you