X===============================PLEASE NOTE=====================================
X This tab belongs to its author and represents his interpretation of the song.
X You may only use this tab for private study, scholarship, or research.
X Do not change, deface, mutilate, or in any other way alter this tab.
X You must email the author first if you want to use this tab on your site.
X===============================================================================

Kyuss: Asteroid
From the album: 'Welcome To Sky Valley' (Elektra)
1995 Elektra Records
Music by Kyuss
Transcribed by Sean Hayter 2001

Tuning: Down 2 Whole Steps to C (C-F-Bb-Eb-G-C)
Notes: 'Asteroid' is track #1 Pt.2 on 'Welcome To Sky Valley'

Intro:
C|-----------------------------------------------------------------------||
G|-----------------------------------------------------------------------||
Eb|-----------------------------------------------------------------------||
Bb|---------------------------------------------------------4-5--5-4-4----||
F|-7--7---7---9---7----7-7---7----9--7----7--7----7---9-7------------5-4-||
C|-0----0---8-----0--0-----0---10---------0-----0---8---------0----0-----||

Heavy Part:
C|-------------------------------------------------------------||
G|-------------------------------------------------------------||
Eb|---------12---------11---------------------------------------||
Bb|------------------------------12--11-------------------------||
F|---------10---------9----------------------------------------||
C|-0--0-0------0--0------0--0---10--9--------------------------||

Riff A:
C|------------------------------------------------------------||
G|------------------------------------------------------------||
Eb|------------------------------------------------------------||
Bb|------------------------------------------------------------||
F|--------------------------10--9---------------12--10--------||
C|-0--10--12--0--10--12--0---------0--10--9--0----------------||

Riff B:
C|-----------------------------------------------------------||
G|-----------------------------------------------------------||
Eb|-----------------------------------------------------------||
Bb|-----------------------------------------------------------||
F|--------------------------12--10---------------------------||
C|-0--10--12--0--10--12--0----------0--10--12--0--10--9------||

Lyrics:
N/A - Instrumental