X===============================PLEASE NOTE=====================================
X This tab belongs to its author and represents his interpretation of the song.
X You may only use this tab for private study, scholarship, or research.
X Do not change, deface, mutilate, or in any other way alter this tab.
X You must email the author first if you want to use this tab on your site.
X===============================================================================

Kyuss: Apothecaries' Weight
From the album: 'Blues For The Red Sun' (Dali)
1992 Dali Records
Music by Kyuss
Transcribed by Sean Hayter 2001

Tuning: Down 2 Whole Steps to C (C-F-Bb-Eb-G-C)
Notes: 'Apothecaries' Weight' is track #6 on 'Blues For The Red Sun'

Intro/Main Riff:
C|-----------------------------------------------------------|
G|-----------------------------------------------------------|
Eb|-----------------------------------------------------------|
Bb|------------------------------h----------------------------|
F|-11--11----11-11----11--11--11^12----12----12-12----12--12-|
C|--0------0--------0---------------0------0--------0--------|

C|------------------------------------------------------------------------|
G|------------------------------------------------------------------------|
Eb|------------------------------------------------------------------------|
Bb|---^--------------------------------h---12------------------------------|
F|-12^14----14----14-----14--14-----12^14----14-----14----14-14----14--14-|
C|-------0------0-----0----------0------------0--0------0--------0--------|

C|----------------------------------------------------------|
G|----------------------------------------------------------|
Eb|----------------------------------------------------------|
Bb|-----------12-----12--------------12-----12---------------|
F|-11--11-------11-----11--11-12-12-----12----12--12--9^-^9-|
C|--0------0-------------------0--0-------------------------|

C|--------------------------------||
G|--------------------------------||
Eb|--------------------------------||
Bb|--------------------------------||
F|-7-----7-----7-----7--7---------||
C|-0--0-----0-----0--------0--0---||

Transition:
C|-----------------||
G|-----------------||
Eb|-7-7-7-7-9-------||
Bb|-7-7-7-7-9-------||
F|-5-5-5-5-7-------||
C|-----------------||

Outro:
C|-------------------------||
G|-------------------------||
Eb|-------------------------||
Bb|---------p-----------5~--||
F|--------7^5--------------||
C|-0--0-0-----7-6~--0------||

Ending:
C|------------||
G|------------||
Eb|------------||
Bb|------------||
F|-------7~-/-||
C|-6~--0------||

Lyrics:
N/A - Instrumental