X===============================PLEASE NOTE=====================================
X This tab belongs to its author and represents his interpretation of the song. 
X You may only use this tab for private study, scholarship, or research. 
X Do not change, deface, mutilate, or in any other way alter this tab. 
X You must email the author first if you want to use this tab on your site.
X===============================================================================

Sheperds Pie Tab

Tabbed by David Boulanger

>Tuning: D G C F A D


Riff A

-----2-------2-------2------2--
-----3-------3-------3------3--
-----2-------2-------2------2--
-0-------0-------0-------0-----
----------------------------------
----------------------------------

Riff B
-----------------------------------
----2-------2--------2-------2--
----2-------2--------2-------2--
----2-------2--------2-------2--
-0------0--------0-------0-------
------------------------------------

Riff C

-----2--x--2-----x--x--x--
-----3--x--3-----x--x--x--
-----2--x--2-----x--x--x--
-----------------------------
-----------------------------
-----------------------------

Riff D

---------------------------------
----2-----2--2--2--2--2--2--
----2-----2--2--2--2--2--2--
----2-----2--2--2--2--2--2--
----0-----0--0--0--0--0--0--
---------------------------------



Order
'Sheperds Pie' (Spoken)

Riff A x4

With Riff A x2
'Sheperds Pie, Sheperds Pie'

With Riff B x1 then riff A x1
'I'm gonna get me some sheperds pie'

Verse 2
With Riff C x2
'Sheperds Pie, Sheperds Pie'

With Riff D x1 then riff C x1
'I'm gonna get me some sheperds pie'

Repeat endlessly until everyone in the same room as you wants to kill you