X===============================PLEASE NOTE=====================================
X This tab belongs to its author and represents his interpretation of the song.
X You may only use this tab for private study, scholarship, or research.
X Do not change, deface, mutilate, or in any other way alter this tab.
X You must email the author first if you want to use this tab on your site.
X===============================================================================

Kyuss: 800
From the album: 'Blues For The Red Sun' (Dali)
1992 Dali Records
Lyrics by John Garcia
Music by Joshua Homme
Transicribed by Joel (j_sorensson@hotmail.com)

Tuning: Down 2 Whole Steps to C (C-F-Bb-Eb-G-C)
Notes: Get a phaser and a caugh.

Intro:
c---------------------------------------
g---------------------------------------
eb-9--9-9-9--9--9-9-9--------9--9-12-12-
bb-7--7-7-7--7--7-7-7-------10-10-12-12-
f--0--0-0-0--0--0-0-0--------0--0--0--0-
c---------------------simile------------

c----------------------------------------------------
g----------------------------------------------------
eb-9--9-12-12--9--9-12-12--9--9-12-12--12-9-9-9-12-9-
bb-7--7-10-10--7--7-10-10--7--7-10-10--10-7-7-7-10-7-
f--0--0--0--0--0--0--0--0--0--0--0--0---0-0-0-0--0-0-
c----------------------------------------------------

first part again then:

c--------------------------
g--------------------------
eb-9-9-12-12-14-15--14-15--
bb-7-7-12-12-14-15--14-15--
f--0-0--0--0--0--0---0--0--
c--------------------------

Second guitar:
c-----------------------------
g--------------------------
eb-2-2-2-2-2-2-2-2-2--------
bb-2-2-2-2-2-2-2-2-2-you get the point.
f--0-0-0-0-0-0-0-0-0----
c------------------------

801. questions? comments? corrections? pics of cheese? mail me.