X===============================PLEASE NOTE=====================================
X This tab belongs to its author and represents his interpretation of the song.
X You may only use this tab for private study, scholarship, or research.
X Do not change, deface, mutilate, or in any other way alter this tab.
X You must email the author first if you want to use this tab on your site.
X===============================================================================

Kyuss: 100
From the album: 'Welcome To Sky Valley' (Elektra)
1995 Elektra Records
Lyrics by J. Homme
Music by Kyuss
Transcribed by Sean Hayter 2001

Tuning: Down 2 Whole Steps to C (C-F-Bb-Eb-G-C)
Notes: '100' is track #2 Pt. 1 on 'Welcome To Sky Valley'

Intro: (w/wah)
C|----------------||
G|----------------||
Eb|-7-/9-x-x-x-x-x-||
Bb|-7-/9-x-x-x-x-x-||
F|-5-/7-x-x-x-x-x-||
C|----------------||

Verse:
C|--------------------------------------------------------------||
G|--------------------------------------------------------------||
Eb|--------------------------------------------------------------||
Bb|-7-/9-9-9-9-9-9-7-/9-9-9-9-9-9-7-/9-9-9-9-9-9-12-\9-9-9-9-9-9-||
F|-5-/7-7-7-7-7-7-5-/7-7-7-7-7-7-5-/7-7-7-7-7-7-10-\7-7-7-7-7-7-||
C|--------------------------------------------------------------||

Chorus:
C|----------------------||
G|----------------------||
Eb|---------7-9b-9-----7-||
Bb|-9-9-7/9-5-7b-7-9\7-5-||
F|-7-7-5/7--------7\5---||
C|----------------------||

Solo:
C|------------------------------------------------|
G|------------------------------------------------|
Eb|------12~~-12h14----------12~~-12h1414b-14r-12~-|
Bb|-12h14----------14~~-12h14----------------------|
F|------------------------------------------------|
C|------------------------------------------------|

C|------------------------------------------------||
G|------------------------------------------------||
Eb|------12~~-12h14----------12~~-12h1414b14r12h14-||
Bb|-12h14----------14~~-12h14----------------------||
F|------------------------------------------------||
C|------------------------------------------------||

Bridge Pt.1:
C|--------------------------------------------------|
G|--------------------------------------------------|
Eb|-9--9-9-9-9-9-9----------9--9-9-9-9-9-9-----------|
Bb|-9--9-9-9-9-9-9-5h7-7~~~-9--9-9-9-9-9-9-Bass-Fill-|
F|-7--7-7-7-7-7-7----------7--7-7-7-7-7-7-----------|
C|--------------------------------------------------|

C|----------------12b---12~~~-------------------------||
G|----------------------------------------------------||
Eb|-9--9-9-9-9-9-9------------9--9-9-9-9-9-9-----------||
Bb|-9--9-9-9-9-9-9------------9--9-9-9-9-9-9-Bass-Fill-||
F|-7--7-7-7-7-7-7------------7--7-7-7-7-7-7-----------||
C|----------------------------------------------------||

Bridge Pt. 2: (w/wah) -> this is probably improvised. Fiddle around with Left Hand muting and these two chords; C#(xxx9910) & C(xxx889).

Lyrics:
Step on it
I beg you please
Jus' a hundred degrees
I'm on my knees
It's the one you blow
It's the one you show
So then you know I'm right

There's been a place built for you
Sit by the fire tell, me truths
Don't blind my eyes, turn them blue
And then I'll dry my face on you

Step on
I beg you please
Jus' a hundred degrees
So I freeze
Drowning in that ice I fly
It's a great white place
And the heat's diseased

There's been a place built for you
Sit by the fire tell, me truths
Don't blind my eyes, turn them blue
And then I'll dry my face on you

One hundred degrees
One hundred degrees
One hundred