The Lost Art of Keeping a Secret

Tuning - C F Bb Eb

riff 1:
|------------------------------------7h9----------------7h9--|
|----------------------9-9-9-9-9-9-9-----8-8-8-8-8-8--8------|
|---7-7-7-7-7-7-7-5h7----------------------------------------|
|------------------------------------------------------------|

|--------------------|
|---7-7-7-7-7-5-4-0--|
|--------------------|
|--------------------|

riff 2:
|-----------------------------------7h9-----------7---9-------------------|
|---------------------9-9-9-9-9-9-9-----8-8-8-8-8---8---7-7-7-7-7-5-4-0---|
|---7-7-7-7-7-7-7-5h7-----------------------------------------------------|
|-------------------------------------------------------------------------|

riff 3:
|---------------------------------7---9-----------------7h9--|
|----------------------5--9-9-9-9---9----8-8-8-8-8-8-8-------|
|---7-7-7-7-7------5h7---------------------------------------|
|--------------5h7-------------------------------------------|

|-----------------------------|
|---7-7-7-7h9h11-0h9-0-7h9-0--|
|-----------------------------|
|-----------------------------|

chorus riff 1:
|-------------------------------------------------------------------------|
|-------------------------------------------------------------------------|
|---7-7-7-7-7-7-7-7-------------------------------------------------------|
|-------------------7-7-7-7-7-7-7-7--6-6-6-6-6-6-6-6--3-3-3-3-3-5-x-5-7---|

chorus riff 2:
|------------------------------------------------------------------------|
|------------------------------------------------------------------------|
|---7-7-7-7-7-7-7-7------------------------------------------------------|
|-------------------6-6-6-6-6-6-6-6--3-3-3-3-3-3-3-2--2-2-2-2-1-1-1-1/---|

riff 4:
|--------------------------------7---9---------------7h9---|
|----------------------9-9-9-9-9---9---8-8-8-8-8-8-8-------|
|---7-7-7-7-7-7-7-5h7--------------------------------------|
|----------------------------------------------------------|
bridge:
|------------------------------------------------------------------------|
|------------------------------------------------------------------------|
|------------------------------------------------------------------------|
|---6-6-6-6-6-6-6-6--6-6-6-6-6-6-6-6--8-8-8-8-8-8-8-8--8-8-8-8-8-8-8-8---|

1st ending:
|----------------------9h7-9-9-9-9-9-9---|
|------------------7h9-------------------|
|---7-7-7-7--7-7-7-----------------------|
|----------------------------------------|

2nd ending:
|---------------------|
|---------------------|
|---------------------|
|---8-8-8-8-8-8-8-8---|


|---------------7-----9---|
|---7-7-7-7-7h9---7h9-----|
|-------------------------|
|-------------------------|

riff 5:
|----------------------------------7---9--------9---10------12---|
|---------------------5--9-9-9-9-9---9----8-8-8---8----8h10------|
|---7-7-7-7-7-----5h7--------------------------------------------|
|-------------5h7------------------------------------------------|

|-------------7h9-0---------|
|---7-7-7-7h9---------------|
|-----------------------5---|
|-------------------5h7-----|

outro:
|------------------|
|------------------|
|-------7----------|
|---0-0----3-5-7---|

riff 1 2x

riff 2 1x:
Well Iíve got a secret, I cannot say
A modern movement to give it away

riff 3 1x:
Youíve got somethin that I understand
Hold it in tightly, call on command

riff 1 1x:
Leap of faith, do you doubt?
Cut you in I just cut you out

chorus riff 1 2x:
Whatever you do
Donít tell anyone
Whatever you do
Donít tell anyone

riff 1 2x:
Look for reflections, in your face
Canine devotion, time canít erase
Out on the corner or locked in your room
I never believe them and I never assume

riff 4 1x:
Stuck in believe, there is a lie
Promise is promise, an eye for an eye

riff 1 1x:
But weíve got something to reveal
No one can know how we feel

chorus riff 1 2x:
Whatever you do
Donít tell anyone
Whatever you do
Donít tell anyone

chorus riff 2 1x:
Whatever you do
Donít tell anyone

chorus riff 1 1x:
Whatever you do
Donít tell anyone

bridge w/1st ending:
I think you already know
How far Iíd go not to say

bridge w/2nd ending:
You know the art isn't gone
And Iím taking our song to the grave

play riff 2 during the solo

chorus riff 1 2x:
Whatever you do
Donít tell anyone
Whatever you do
Donít tell anyone

chorus riff 2 1x:
Whatever you do
Donít tell anyone

chrous riff 1 1x:
Whatever you do
Donít tell anyone

outro 4x