Regular John

Tuning - C F Bb Eb

bass comes in with drums

riff 1:
---------------------|
---------------------|
---7-7-7-7-7-7-7-7---|
---------------------|

fill 1:
-------------|
-------------|
-------5-7---|
---5-7-------|

riff 1 4x

fill 1 1x

riff 1 4x

fill 1 1x

riff 1 2x

fill 1 1x

riff 1 2x

fill 1 1x

riff 1 2x

fill 1 1x

riff 1 2x

fill 1 1x

riff 1 4x

riff 1:
Who are you girl?
Who are you boy?

riff 2:
-------------------------------|
-------------------------------|
---------8-----5-5-5-5-5-5-5---|
---5--7-----8------------------|

riff 2:
Bet I know

riff 1:
What youíre up to
Can I come along

riff 2:
Your home

riff 1:
Numberís on the wall
I just had to call

riff 2:
Had to

riff 1:
Iím not the only one
Who will run with a knife

chorus riff:
-----------------------------------|
---5-5-5-5-5-5-5-5-----------------|
---------------------------7-7-7---|
-------------------5--0-0----------|

chorus riff:
Open up your eyes
Open up your room
Open up your arms

hold this note:
-------|
-------|
---7---|
-------|

riff 1 4x

fill 1 1x

riff 1 2x

fill 1 1x

riff 1 2x

fill 1 1x

riff 1 4x

riff 1:
One six two seven eight
Two six three seven eight nine

riff 2

riff 1:
Whereís your daddy now
I heard he ran away

riff 2

riff 1:
Who are you girl?
Cause Iím so bored with myself

riff 2:
Anyway

riff 1:
Any time and any place
Iíll just hang around

riff 2

chorus riff:
Open up your eyes
Open up your room
Open up arms

interlude 1:
----------------------------------------------------------------|
----------------------------------------------------------------|
---7-7--7-7-7--7-7-7--7-7-7--7-9-9--9-9-9--9-9-9--9-9-9--9h10---|
----------------------------------------------------------------|

interlude 2:
---------------------------------------------|
---0-12-0-12-0-12-0-12-0-12-0-12-0-12-0-12---|
---------------------------------------------|
---------------------------------------------|

---------------------------------|
---------------------------------|
---7-7--7-7-7--7-7-7--7-7-7--7---|
---------------------------------|

interlude 3:
---------------------------------------------|
---0-12-0-12-0-12-0-12-0-13-0-13-0-14-0-14---|
---------------------------------------------|
---------------------------------------------|

---------------------------------|
---------------------------------|
---7-7--7-7-7--7-7-7--7-7-7--7---|
---------------------------------|

interlude 1 3x

interlude 2 2x

interlude 3 2x

riff 1:
One six two seven eight
Two six three seven eight nine

riff 2 1x

chorus riff:
open up your eyes
open up your room
open up your arms
open up your door
open up your eyes
open up your room

end on:
-------|
-------|
---7---|
-------|