Give the Mule What He Wants

Tuning - C F Bb Eb

intro:
-------------------------------------------------------------------------|
-----------9-11-9--------11p9--------------------------------------------|
---7--7--7--------------------11-11p9--7--7--7-11-9-11-------------------|
------------------9--9-9-------------------------------9--9-9p7-9-7-9\---|

riff 1:
--------------------------------------------------------------|
---------9-11-9--------13--11-------------------------13-11---|
---7-7-7-------------------------7-7-7-11-9-11----------------|
----------------9--9-9-------------------------9--9-9---------|

---------------------------------------------------------------|
---------9-11-9--------13-11-9---------------------------------|
---7-7-7-----------------------11-9---7-7-7-9-11-9-------------|
----------------9--9-9-----------------------------9--9-9--9---|

riff 2:
----------------------------|
----------------------------|
---7-7-7-9-11-9-------------|
----------------9--9-9--9---|

riff 3:
-------------------|
-------------------|
-------------------|
---0--0--9--9--9---|

riff 4:
---------------------|
---------------------|
-----------------7---|
---0h7--9--9-7h9-----|

riff 5:
-----------------------|
-----------------------|
-----------------------|
---0h7--9--9--7h9--0---|

intro 1x

riff 1 1x

riff 2 1x

riff 3 4x

riff 5 4x

riff 5:
The mule want it

riff 4:
The mule want it sunday
Heíll eat it
Heíll eat it one day

riff 5:
How long

riff 4:
Do I wait
Be the mule that you gotta be

riff 1 1x

riff 2 2x

riff 3 4x

riff 5 4x

fill 1:
-------------------|
-------------------|
-------7-------7---|
---7h9---9-7h9-----|

fill 1 1x

riff 4:
Underwater, underwater one day

fill 1 1x

riff 5:
Gonna sink it, make em think itís too late
For your love
For your love

riff 4:
Be the mule that you gotta be

alternate between riff 4 and riff 5 until the end