Monsters in the Parasol

Tuning - C F Bb Eb

riff 1:
-------------------------------------|
-------------------------------------|
---4-4-4-4-4-4-4-4-4-4-4-4-4-4-4-4---|
-------------------------------------|

fill 1:
-------|
---6---|
-------|
-------|

riff 2:
-------------------------|
-------------------------|
---2-2-2-2-2-2-2-2-2-2---|
-------------------------|

riff 3:
---------------------|
---------------------|
---9-8-7-6-7-8-9-8---|
---------------------|

riff 4:
------------------------------------------------------|
---5-5-5-5-5-5-------------7-7-7-7-7-7--8-8-8-8-8-8---|
---------------7-7-7-7-7-7----------------------------|
------------------------------------------------------|

chorus riff:
---------------------------------------------------------------|
-------------------------------------------------------7-7-7---|
---9-9-9-9-9-9-9-9---------------------------------------------|
--------------------9-9-9-9-9-9-9-9--7-7-7-7-7-7-7-7-7---------|

riff 1 1x

fill 1 1x

riff 1 1x

fill 1 1x

riff 1 1x

fill 1 1x

riff 1 1x

fill 1 1x

riff 1:
The walls are closing in again, oh well

fill 1 1x

riff 1:
The walls are closing in again, oh well

fill 1 1x

riff 1:
I seen some thing I thought I never saw
Covered in hair

riff 1 1x

fill 1 1x

riff 1 1x

fill 1 1x

riff 1:
Paulís dad is warped and bubbling, oh well

fill 1 1x

riff 1:
Paulís dad is warped and bubbling, oh well

fill 1 1x

riff 1:
And my mind is up here on

riff 2:
Another wave
Covered in hair

riff 1 1x

riff 3:
She wonít grow

riff 4 1x

chorus riff:
Youíve got a monster (distress) in your parasol (body out??)
Youíve got a monster (dwarves) in your parasol (of course)
Youíve got a monster (displeasure) in your parasol (I told you??)
Youíve got a monster (?) in your parasol (xnay)

riff 1:
Paulís sister is an alien, oh well

fill 1 1x

riff 1:
Paulís sister is an alien, oh well

fill 1 1x

riff 1:
I seen some things I thought I

riff 2:
Never saw
Covered in hair

riff 3:
She wonít grow

riff 4 1x

chorus riff:
Youíve got a monster (distress, my pest) in your parasol
Youíve got a monster (drawves) in your parasol (?)
Youíve got a monster (displeasure) in your parasol (?)
Youíve got a hole in you I never saw (??)
In your parasol, in your parasol (benzene?)

riff 3 1x