X===============================PLEASE NOTE=====================================
X This tab belongs to its author and represents his interpretation of the song.
X You may only use this tab for private study, scholarship, or research.
X Do not change, deface, mutilate, or in any other way alter this tab.
X You must email the author first if you want to use this tab on your site.
X===============================================================================

Mexicola
tabbed by thefade.net with corrections by Andy
Tuning - C F Bb Eb

intro:
--------------------------------------------------------------------|
--------------------------------------------------------------------|
---/7---------------6-------------------------------6---------------|
------0-0-0-0-0-0-0---0-0-0-0-0-0-0-0-0-0-0-0-0-0-0---0-0-0-0-0-0---|

riff 1:
---------------------------------|
---------------------------8-----|
-------7-6-----7-6-----------7---|
---0-0-----0-0-----0-0-4h6-------|

riff 2:
-------------------------------8---|
---------------------------5-8-----|
-------7-6---------7-----7---------|
---0-0-----0-0-0-0-----------------|

riff 3:
--------------------------------------------------------------------------|
--------------------------------------------------------------------------|
---10--10--10-10-10--10--10-10--10--10-10-10--7--7--7-7-7--7--7-7--7-7-7--|
--------------------------------------------------------------------------|

riff 4:
--------------------------------------------------------------|
--------------------------------------------------------------|
---------------------------------7--7--7-7-7--7--7-7--7-7-7---|
---3--3--3-3-3--3--3-3--3--3-3-3------------------------------|

chorus riff:
----------------------------|
----------------------------|
--------9-------------------|
--0-0-------0-0---10--0-10--|

intro 1x

riff 1 1x

riff 2 1x

riff 1 3x

riff 2 1x

riff 1 3x

riff 2 1x

riff 4 4x

riff 3:
Setting sun deals hands of gold
Thereís velvet eyes in Mexico
Just a fall away
And all she said was true
Speak in tongues, speak in lies
Drooling livers, born to die
Itís a wonder that those guns donít point at you

riff 4 2x

chorus riff:
Keep sayin, go on, keep sayin, go on, keep sayin, you won't live forever

riff 3:
Point and shoot, I know just what you mean
In a world thatís full of shit and gasoline, baby
One dogís dead oneís on the phone
Just leave a lung or leave it alone
Itís that same on song again
I hate it cause itís true

riff 4 2x

riff 1 3x

riff 2 1x

riff 1 4x

chorus riff:
Keep sayin, go on, keep sayin, go on, keep sayin, you won't live forever

chorus riff until the end


Thanks to Andy for the corrections