Leg of Lamb

Tuning - C F Bb Eb

riff 1:
---------------------|
---------11-11-------|
---8-9-9-------9-9---|
---------------------|

riff 2:
----------------------------------|
-------9-9------------10-10-------|
---7-7-----7-7--7-8-8-------8-8---|
----------------------------------|

riff 3:
----------------------------------------------------------------------------|
----------------------------------------------------------------------------|
---9-9--9-9-9--7-7--7-7-7--8-8--8-8-8---------------------------------------|
--------------------------------------9-9--9-9-9--10-10-10-10-10-10-10-10---|

-------------------------------------------------------|
-------------------------------------------------------|
-------------------------------------------------------|
---5-5-5-5-5-5-5-5--7-7-7-7-7-7-7-7--9-9-9-9-9-9-9-9---|

--------------------------------------------------------|
--------------------------------------------------------|
---9-9--9-9-9--7-7--7-7-7--8-8--8-8-8-------------------|
--------------------------------------9-9-9-9-9-9-9-9---|

-------------------------------------------------------------|
-------------------------------------------------------------|
-------------------------------------------------------------|
---10-10-10-10-10-10-10-10--5-5-5-5-5-5-5-5--7-7--7-7-7--9---|

riff 1:
Youíre a head case with a smile
Canít stop to make up your mind
Education is so lame

riff 2:
(So lame)
When you bitch and you moan

riff 1:
Youíre a loose girl, Iím a guy (hey)
Youíre a truth freak with a lie
The situation is so

riff 2:
Strange
Itís a tv show

riff 1:
In a hotel on the phone
Youíre gonna leave me, I shouldíve known (should have known)
And I was thinkin

riff 2:
Itís so sad
I didnít want you to go

riff 1:
Donít wanna follow the laws of man
Bloody apron, leg of lamb
Itís so hard

riff 2:
To win
When thereís so much to lose

riff 1 2x

riff 3:
Infiltrate the walls that are caving in
It ainít a bad thing
This ainít reality
Infiltrate the walls that are caving in
It ainít a bad thing
Because it is natural

riff 1 under lead

riff 1:
Second Avenue, raising Cain
Iím a sinner, ring my bell (hey man)
Iíll tell you what,
riff 2:
I get up
If I knew I fell