If Only

Tuning - C F Bb Eb

intro:
----------------------------|
-----9----------------------|
---7---7-5--5-5-5-----3-5---|
------------------3-5-------|

riff 1:
-------------------------------------|
-------10------9---------------------|
---8-8----8--7----5--5-5-5-----3-5---|
---------------------------3-5-------|

riff 2:
---------------------------------------|
-------10------9------------10-9-7-9---|
---8-8----8--7----5--5-5-5-------------|
---------------------------------------|

chorus riff:
------------------------------|
------------------------------|
---5--5--8--8-8-8-8-8-8-8-8---|
------------------------------|

fill 1:
-------------|
-------------|
-------3-5---|
---3-5-------|

0:09:
intro riff 1x

riff 1:
If it gets you down well then Iíll take it

riff 2:
If it gets you up well I donít want it

riff 1:
It let you down so broken hearted
If it gets you down well then I want it

chorus riff:
If only, only
If only, only
If only, only
If only, only

fill 1:
Weíre nothing at all

riff 1 1x

riff 2 1x

(solo begins)
riff 1 3x

riff 2 1x

riff 1 1x

riff 2 1x

riff 1 2x

riff 1:
So blow our mind and make it lazy
Those long long days with no escaping

riff 2 1x

riff 1:
I hold the wheel to let it go
Donít wanna stop, donít wanna know

riff 2:
If it gets you down, well just donít blame me

riff 1 1x

chorus riff:
If only, only
If only, only
If only, only
If only, only

fill 1 1x

If only, only
If only, only
If only, only
If only, only

fill 1:
Weíre nothing at all

riff 1 1x

riff 2 1x

(second solo starts)
riff 1 2x

riff 2 1x

riff 1 3x